Song name
# A B C D E F G H I J K L M N O P Q R S T U V W X Y Z

Gogol Bordello - Zina-marina tab

Gogol Bordello
"Zina-Marina"
Album: Super Taranta (2007)


-------------------------------------------------|
-------------------------------------------------|
-------------------------------------------------|
-------------------------------------------------|
---------3-----------------------3---------------|
-3-3-5-5---5-5--2-2------3-3-5-5---5-5--8-8------|

-------------------------------------------------|
-------------------------------------------------|
-------------------------------------------------|
------------------------------5-5-------8--------|
---------3---------------7-7--3-3--7-7--6--------|
-3-3-5-5---5-5--3-3------5-5-------5-5-----------|
Tap to rate this tab
# A B C D E F G H I J K L M N O P Q R S T U V W X Y Z