Song name
# A B C D E F G H I J K L M N O P Q R S T U V W X Y Z

Gogol Bordello - Dub The Frequencies Of Love tab

Gogol Bordello
"Dub The Frequencies Of Love"
Album: Super Taranta (2007)


(0:08)

-----------------------------------------------------------|
-----------------------------------------------------------|
-----------------------------------------------------------|
-----------------------------------------------------------|
----------------------------7-7-7-7-8-8-8-7--7-7-7-8-8-7-7-|
-5-5-8-7-5-5-5-7-8-8-7-5-----------------------------------|
PM.........................................................



(0:32)

-------------------------------------------------------------|
-------------------------------------------------------------|
------------------------2-3-2-0-2----2-3-2-0-2--0-0----------|
-------0-2-3-2-0-2----2------------2----------------2--------|
-0-2-3-------------------------------------------------5-3-2-|
-------------------------------------------------------------|

-------------------------------------------------------------|
-------------------------------------------------------------|
----------------------2-3-2-0-2----2-3-2-0-2--9-9-10-9-------|
-------2-2-0-------------------------------------------------|
-0-2-3-------2-0-2-------------------------------------------|
-------------------------------------------------------------|


(4:12)

---------------12----------------------------------|
--10--12-13-10-----------10--12-13-12--------------|
---------------------------------------9-----------|
---------------------------------------------------|
---------------------------------------------------|
---------------------------------------------------|

---------------12-13-12----------------------------|
--10--12-13-10-------------10--12-13-12-13-12------|
----------------------------------------------9----|
---------------------------------------------------|
---------------------------------------------------|
---------------------------------------------------|
Tap to rate this tab
 
# A B C D E F G H I J K L M N O P Q R S T U V W X Y Z