Song name
# A B C D E F G H I J K L M N O P Q R S T U V W X Y Z

Gogol Bordello - My Strange Uncles From Abroad tab

|----------------------------------------------|
|--5---5---5---5---3-3-----3-3-----------------|
|----5---4---2-----------------5-4-2-1-2-------|   x2
|----------------3-----------------------2-----|
|----------------------------------------------|
|----------------------------------------------|

Am                               Dm
My strange uncles from abroad
G                        E
yes I never met'em!
but I took everything they wrote
and I'll never forget 'em!
Through the mystical communication
Deep within it all comes through
forming underground railroad
for our ultimate breakthrough!

|----------------------------------------------|
|--5---5---5---5---3-3-----3-3-----------------|
|----5---4---2-----------------5-4-2-1-2-------|    x2
|----------------3-----------------------2-----|
|----------------------------------------------|
|----------------------------------------------|


My strange nephews from abroad
maybe I'll never meet 'em
They'll take everything I wrote and I'd never forbid 'em!
My strange uncles from beyond
I'll meet 'em on the cosmos street
and we will drink to how we told
to never trust a plastic beat
Through the mystical communication
deep within it all comes through
forming underground railroad
for our ultimate break through!


|---------------------------------------------------------------------------------------|
|--5----3----------------3----3---------------------------5-3---------------3----3-3-3--|
|---------5-4-5-----2--5--------5-4-2-------------------------5-4-5-----2-5------------5|
|-----------------5-------------------5---3-2-0-2-3-2-----------------5-----------------|
|---------------------------------------------------------------------------------------|
|---------------------------------------------------------------------------------------|

|---------|
|---------|
|--5-4-2-4|
|---------|
|---------|
|---------|

i'll submit the solo later.  will take some time
Tap to rate this tab
# A B C D E F G H I J K L M N O P Q R S T U V W X Y Z