Song name
# A B C D E F G H I J K L M N O P Q R S T U V W X Y Z

Gogol Bordello - Not A Crime tab

Intro

|-----------------------------------------------------------------------------|
|-----------------------------------------------------------------------------|
|-----------------------------------------------------------------------------|       x2
|-----------------------------------------------------------------------------|
|------0-2-0---0-------0-2-0---0-------0-2-0---0---2-0---0---2-0---0----------|
|--0-3-------3---3-0-3-------3-----0-3-------3---3-----3---3-----3---3--------|

Intro Harmony

|-------------------------------------------------------------------------------|
|-------------------------------------------------------------------------------|
|-------------------------------------------------------------------------------|
|---------------------------------------------------------------------      x 2-|
|----2-4-5-4-2-4-2----2-4-5-4-2-4----2-4-5-4-2-4-2-5-4-2-4-2-5-4-2-4-2----------|
|--3----------------3--------------3--------------------------------------------|

Violin solo

|---------------------------------------------------------------|
|--5-3-2-3-2----------------------------------------------------|
|------------4---3-4-3---3--------------3-4h6p4-3---------------|
|----------------------5---5-4----2-4-5-----------5-2-4-4-4-----|    x2
|---------------------------------------------------------------|
|---------------------------------------------------------------|

|---------------------------------------------------------|
|--5-3---5-------3-2-3--------5-3-2-----------------------|
|------4---------------4------------4---3-4-3-------------|
|---------------------------------------------5---2-4-4-4-|
|---------------------------------------------------------|
|---------------------------------------------------------|

em
In the old time
In the old time
In the old time
it was not a
F#
NOT A CRIME
Tap to rate this tab
 
# A B C D E F G H I J K L M N O P Q R S T U V W X Y Z