Song name
# A B C D E F G H I J K L M N O P Q R S T U V W X Y Z

Gogol Bordello - Hieroglyph tab

Em: x79987
E7: x79787
Am: 577555
B7: 797877
D: x57775
D*: xx0323

First two chords are Em and E7, then palm mute.

E|------------------------------|    |-----------------------------------|
B|------------------------------|    |-----------------------------------|
G|------------------------------|    |-----------------------------------|
D|-5-4-2--7-5-4--7-5-4-4--5-4-2-| x3 |-5-4-2--7-5-4--7-5-4-4--9/10-9-7-9-|
A|------------------------------|    |-----------------------------------|
E|------------------------------|    |-----------------------------------|


Em            Am     
I never was unruled Poseidon
B7                 Em
My name, it was so often forgotten
Em                Am
But I知 inside of every tree
B7            Em
I知 inside of every atom
Em             Am
Sky and earth, united by me
B7             Em 
I知 unity, I知 gravity
Em            B7
I知 a warrior turned dove
D*                   Em Am D
I知 hieroglyph of... love, love
E|-7---5---3----2-|  
  Hie-ro-glyph of... love, love

(You can play those notes on 6th string, or a B7 chord).

INTRO

Em          Am
If I知 gone before you cry
B7                   Em
It痴 illusion, all illusions must die
Em                   Am
I simply am and will always be 
B7                 Em
Waiting for you to discover me
Em             Am
I知 unity, I知 gravity
B7           Em
I知 wind of eternity
Em            Am
I知 a warrior turned dove
D*                   Em Am D
I知 hieroglyph of... love, love
E|-7---5---3----2-|  
  Hie-ro-glyph of... love, love

Solo:
E|-0-0-0-0-0--5-7-8---10-10-10-10--10/12-10-8--|
B|-0-0-0-0-0--5-8-10--10-10-10-10--10/12-10-10-|
G|-0-------------------------------------------|
D|-2-------------------------------------------|
A|-2-------------------------------------------|
E|-0-------------------------------------------|

INTRO

Em                    Am
Passion can be quiet, it can be still
B7                     Em
Waiting to confront of something real
Em               Am
Against all odds I知 still here
B7                       Em
I知 always with you, I知 always near
Em               Am
Sky and earth, united by me
B7             Em
I知 unity, I知 gravity
Em            Am
I知 a warrior turned dove
D*                   Em Am D
I知 hieroglyph of... love, love
E|-7---5---3----2-|  
  Hie-ro-glyph of... love, love

INTRO

Ends with Em.
Tap to rate this tab
 
# A B C D E F G H I J K L M N O P Q R S T U V W X Y Z