Guitaretab - guitar tabs
Song name
# A B C D E F G H I J K L M N O P Q R S T U V W X Y Z

Gojira - From The Sky tab

Gojira (Godzilla) From the Sky:

e|------------------------------------------------------------------|
B|------------------------------------------------------------------|
G|-----------------------------------------p-p-p-p-p-p--p-p-p-p-p-p-|
D|-1---4---3----6----4----3----1---4---3---0-3-3-3-2-0--0-5-5-5-3-2-|4x
A|-----------------------------------------0-3-3-3-2-0--0-5-5-5-3-2-|
D|-1---4---3----6----4----3----1---4---3---0-3-3-3-2-0--0-5-5-5-3-2-|

e|---------------------------------------------------------------------|
B|---------------------------------------------------------------------|
G|---------on the 4th x ending---p-p-p--p-p-p--p-p-p--p-p-p------------|
D|------------------------------0-3-5--0-3-5--0-3-5--0-3-5-------------|
A|------------------------------0-3-5--0-3-5--0-3-5--0-3-5-------------|
D|------------------------------0-3-5--0-3-5--0-3-5--0-3-5-------------|

e|-0:35-------------------------------------------------------------|
B|------------------------------------------------------------------|
G|-p-p---------p-p--------------------------------------------------|
D|-0-0-8-------0-0-7------------------------------------------------|
A|-0-0-8-(5x)--0-0-7-(5x)--------pick slide for screech ------------|
D|-0-0-8-------0-0-7------------------------------------------------|

e|-pretty much repeat until 2:23--than------------------------------|
B|------------------------------------------------------------------|
G|---p--p--------p--p-p-p-p-p-p-------------------------------------|
D|-2-0-0-2-2-----0--4-3-2-3-2-1-------------------------------------|
A|---0-0---------0--4-3-2-3-2-1-------------------------------------|
D|-2-0-0-2-2-----0--4-3-2-3-2-1-------------------------------------|

e|-----------------------------------------------------------------------|
B|----on 4th x ending----------------------------------------------------|
G|--p-p-p-p-p-p--p-p-p-p-p-p--p-p-p-p-p-p--------------------------------|
D|--4-3-2-3-2-1--4-3-2-3-2-1--3-2-1-2-1-0--------------------------------|
A|--4-3-2-3-2-1--4-3-2-3-2-1--3-2-1-2-1-0--------------------------------|
D|--4-3-2-3-2-1--4-3-2-3-2-1--3-2-1-2-1-0--------------------------------|

[ Tab from: http://www.guitaretab.com/g/gojira/150508.html ]
e|-3:31---------------------------------------------------------|
B|-4/4 time-----------------------------------------------------|
G|--------------------------------------------------------------|
D|-8---7---3---2---1---0----------------------------------------|
A|---------------------0----Listen for timing and strumming-----|
E|-8---7---3---2---1---0----------------------------------------|

e|-3:47----------------------------------------------|
B|-Arpeggio------------------------------------------|
G|---------------------------------------------------|
D|---1--1--1--1--1--1--1--1--0--0--0--0--1--1--0--0--|
A|--0--0--0--0--0--0--0--0--0--0--0--0--0--0--0--0---|
D|-3--3--3--3--1--1--1--1--0--0--0--0--0--0--0--0----|

e|-----------------------------------------------------------------|
B|-----------------------------------------------------------------|
G|-----------------------------------------------------------------|
D|---1--1-1(h)3(p)--1--11(h)3(p)--0--0--0--1--1--0--0------------|
A|--0--0--0---------0--0--0--------0--0--0-0--0--0--0(repeat 2x)-|
D|-3--3--3---------1--1--1--------0--0--0--0--0--0--0--------------|

e|-4:17--------------------------------------------------------------|
B|-------------------------------------------------------------------|
G|-p-p-p-p-p-p-p-p-p-p-p-p-p-p-p-p-p---------------------------------|
D|-0-0-0-0-0-0-0-0-0-0-0-0-0-0-0-0-0---------------------------------|
A|-0-0-0-0-0-0-0-0-0-0-0-0-0-0-0-0-0---------------------------------|
D|-0-0-0-0-0-0-0-0-0-0-0-0-0-0-0-0-0---------------------------------|


e|-4:21------------------------------------------------------------|
B|-----------------------------------------------------------------|
G|---tremolo picking-----------------------------------------------|
D|-----------------------------------------------------------------|
A|---------------------------17-----15------repeat till 5:28 ------|
D|-3-7-3-7s8--2--8--10---12------12--------------------------------|


e|--------------------------------------------------|
B|--------------------------------------------------|
G|----Play the beginning part till end--------------|
D|--------------------------------------------------|
A|--------------------------------------------------|
D|--------------------------------------------------|


e|--------------------------------------------------|
B|---If you want to learn how to growl--------------|
G|--------------------------------------------------|
D|---watch home improvement!! Hope you think--------|
A|--------------------------------------------------|
D|---this tab is accurate. -------------------------|
Related for From The Sky tab