Song name
# A B C D E F G H I J K L M N O P Q R S T U V W X Y Z

Gojira - In The Forest tab

#--------------------------------PLEASE NOTE-------------------------------#
#This file is the author's own work and represents their interpretation of the#
#song. You may only use this file for private study, scholarship, or research.#
#--------------------------------------------------------------------------#
# File created with Instab - http://www.pconline.com/~smcarey/instab.html -#
#--------------------------------------------------------------------------#

Author/Artist: Gojira
Title: In The Forest
Album: Terra Incognita
Transcribed by: Jaymz88
DGCFAD


----------------------------------------------------------------------------|
--6------------------8----------------6------------------8------------------|
-----7-----------------------------------7----------------------------------|
---------6--------5-------------------------6---------5---------------------|
----------------------------------------------------------------------------|
----------------------------------------------------------------------------|

On the 2nd fret.
---------------|-------------------------------------------------------------|
---------------|-------------------------------------------------------------|
---------------|-------------------------------------------------------------|x4
---------------|-------------------------------------------------------------|
-x-x-x--x-x-x--|--x-x-x--x-x-x--x-x-x--x-x-x--x-x-x--x-x-x--x-x-x--x-x-x-----|
-x-x-x--x-x-x--|--x-x-x--x-x-x--x-x-x--x-x-x--x-x-x--x-x-x--x-x-x--x-x-x-----|
 - - -  - - -     - - -  - - -  - - -  - - -  - - -  - - -  - - -  - - -

----------------------------------------------------------------------------|
----------------------------------------------------------------------------|
----------------------------------------------------------------------------|
----------------------------------------------------------------------------|
--x-x-x--x-x-x--x-x-x--x-x-x--x-x-x--x-x-x--2-2-2--2-2-2--------------------|
--x-x-x--x-x-x--x-x-x--x-x-x--x-x-x--x-x-x--0-0-0--0-0-0--------------------|
  - - -  - - -  - - -  - - -  - - -  - - -  - - -  - - -

----------------------------------------------------------------------------|
----------------------------------------------------------------------------|
----------------------------------------------------------------x4----------|
----------------------------------------------------------------------------|
--2-2-2--2-2-2--2-2-2--2-2-2--2-2-2--2-2-2--2-2-2--2-2-2--------------------|
--0-0-0--0-0-0--0-0-0--0-0-0--0-0-0--0-0-0--0-0-0--0-0-0--------------------|
  - - -  - - -  - - -  - - -  - - -  - - -  - - -  - - -

-----------------------------------------------------------------------------|
-----------------------------------------------------------------------------|
-----------------------------------------------------------------------------|
-----------------------------------------------------------------------------|
--2-2-2-2-2-2-2-2-2-2-2-2-2-2-2-2-2-2-2-1-1-1--------------------------------|
--2-2-2-2-2-2-2-2-2-2-2-2-2-2-2-2-2-2-2-1-1-1----1--0--1---1--0--1---1--0--1-|
  - - - - - - - - - - - - - - - - - - - - - -    -  -  -   -  -  -   -  -  -

-----------------------------------------------------------------------------|
-----------------------------------------------------------------------------|
-------------x4--------------------------------------------------------------|
-----------------------------------------------------------------------------|
------------------2-2-2-2-2-2-2-2-2------------------------------------------|
-4--1--0----------2-2-2-2-2-2-2-2-2--1--0--1--0---1--0--1--4--1--0-----------|
 -  -  -          - - - - - - - - -  -  -  -  -   -  -  -  -  -  -


-----------------------------------------------------------------------------|
-----------------------------------------------------------------------------|
-----------------------------------------------------------------------------|
-----------------------------------------------------------------------------|
--2-2-2-2-2-2-2-2-2-2-2-2-2-2-2-2-2-2-2-1-1-1--------------------------------|
--2-2-2-2-2-2-2-2-2-2-2-2-2-2-2-2-2-2-2-1-1-1----1--0--1---1--0--1---1--0--1-|
  - - - - - - - - - - - - - - - - - - - - - -    -  -  -   -  -  -   -  -  -

-----------------------------------------------------------------------------|
-----------------------------------------------------------------------------|
-------------x2--------------------------------------------------------------|
-----------------------------------------------------------------------------|
------------------2-2-2-2-2-2-2-2-2------------------------------------------|
-4--1--0----------2-2-2-2-2-2-2-2-2--1--0--1--0---1--0--1--4--1--0-----------|
 -  -  -          - - - - - - - - -  -  -  -  -   -  -  -  -  -  -


----------------------------------------------------------------------------|
--6------------------8----------------6------------------8------------------|
-----7-----------------------------------7----------------------------------|
---------6--------5-------------------------6---------5---------------------|
----------------------------------------------------------------------------|
----------------------------------------------------------------------------|


---------------|------------------------------------------------------------|
---------------|------------------------------------------------------------|
---------------|------------------------------------------------------------|
---------------|------------------------------------------------------------|
-x-x-x--x-x-x--|--x-x-x--x-x-x--x-x-x--x-x-x--x-x-x--x-x-x--2-2-2--2-2-2----|
-x-x-x--x-x-x--|--x-x-x--x-x-x--x-x-x--x-x-x--x-x-x--x-x-x--0-0-0--0-0-0----|
 - - -  - - -     - - -  - - -  - - -  - - -  - - -  - - -  - - -  - - -


----------------------------------------------------------------------------|
----------------------------------------------------------------------------|
----------------------------------------------------------------x7----------|
----------------------------------------------------------------------------|
--2-2-2--2-2-2--2-2-2--2-2-2--2-2-2--2-2-2--2-2-2--2-2-2--------------------|
--0-0-0--0-0-0--0-0-0--0-0-0--0-0-0--0-0-0--0-0-0--0-0-0--------------------|
  - - -  - - -  - - -  - - -  - - -  - - -  - - -  - - -


-----------------------------------------------------------------------------|
-----------------------------------------------------------------------------|
-----------------------------------------------------------------------------|
-----------------------------------------------------------------------------|
--2-2-2-2-2-2-2-2-2-2-2-2-2-2-2-2-2-2-2-1-1-1--------------------------------|
--2-2-2-2-2-2-2-2-2-2-2-2-2-2-2-2-2-2-2-1-1-1----1--0--1---1--0--1---1--0--1-|
  - - - - - - - - - - - - - - - - - - - - - -    -  -  -   -  -  -   -  -  -

----------------------------------------------------------------------------|
----------------------------------------------------------------------------|
-------------x4-------------------------------------------------------------|
----------------------------------------------------------------------------|
------------------2-2-2-2-2-2-2-2-2-----------------------------------------|
-4--1--0----------2-2-2-2-2-2-2-2-2--1--0--1--0---1--0--1--4--1--0----------|
 -  -  -          - - - - - - - - -  -  -  -  -   -  -  -  -  -  -


-----------------------------------------------------------------------------|
-----------------------------------------------------------------------------|
-----------------------------------------------------------------------------|
-----------------------------------------------------------------------------|
--2-2-2-2-2-2-2-2-2-2-2-2-2-2-2-2-2-2-2-1-1-1--------------------------------|
--2-2-2-2-2-2-2-2-2-2-2-2-2-2-2-2-2-2-2-1-1-1----1--0--1---1--0--1---1--0--1-|
  - - - - - - - - - - - - - - - - - - - - - -    -  -  -   -  -  -   -  -  -

----------------------------------------------------------------------------|
----------------------------------------------------------------------------|
-------------x2-------------------------------------------------------------|
----------------------------------------------------------------------------|
------------------2-2-2-2-2-2-2-2-2-----------------------------------------|
-4--1--0----------2-2-2-2-2-2-2-2-2--1--0--1--0---1--0--1--4--1--0----------|
 -  -  -          - - - - - - - - -  -  -  -  -   -  -  -  -  -  -


-x--------------------------------------------------------------------------|
-x--------------------------------------------------------------------------|
-x--------------------------------------------------------------------------|
-x--------------------------------------------------------------------------|
-x--------------------------------------------------------------------------|
-x--2-2-2-2-2-2-2--1--0--1---1--0--1--4--1--0-------------------------------|
    - - - - - - -  -  -  -   -  -  -  -  -  -

-----------------------------------------------------------------------------|
--8--8--9---8--8--9---8--8--9---8--8--9--------------------------------------|
--6--6--6---6--6--6---6--6--6---6--6--6--------------------------------------|
-----------------------------------------------------------------------------|
-------------------------------------------6-6-6-6-6-6-6-6-6-6-6-6-6-6-6-6-6-|
-------------------------------------------6-6-6-6-6-6-6-6-6-6-6-6-6-6-6-6-6-|
                                           - - - - - - - - - - - - - - - - -

At the end
----------------------------------------------------------------------------|
----------------------------------------------------------------------------|
----------------------------------------------------------------------------|
----------------------------------------------------------------------------|
--6-6-6-6-6-6-6-6-6-6-6-6-6-6-6-6----6-6-6-6-6-6-6-6-6-6-6-6-6-6-6-6-6------|
--6-6-6-6-6-6-6-6-6-6-6-6-6-6-6-6----6-6-6-6-6-6-6-6-6-6-6-6-6-6-6-6-6------|
  - - - - - - - - - - - - - - - -    - - - - - - - - - - - - - - - - -

Acoustic guitar
----------------------------------------------------------------------------|
--14--13--12--11-----------------------14--13--12--11-----------------------|
----------------------------------------------------------------------------|
------------------------------------11--------------------------------------|
-------------------14--13--12--11-----------------------14--13--12--11------|
----------------------------------------------------------------------------|
Tap to rate this tab
# A B C D E F G H I J K L M N O P Q R S T U V W X Y Z