Song name
# A B C D E F G H I J K L M N O P Q R S T U V W X Y Z

Gojira - The Silver Cord tab

Help us improve GuitareTab! Take a short survey!
The Silver Cord - Gojira

Drop C Tuning - C , G , C , F , A , D


A:

|--------------------------------|--------------------------------|
|--------------------------------|--------------------------------|
|--------------------------------|--------------------------------|
|--------0---------------0-------|------------0-------------------|
|----5---------------3-----------|----1-----------1-------1-------|
|7-8---------8---7-----------5---|--------5-----------5-------5---|

|--------------------------------|--------------------------------|
|--------------------------------|--------------------------------|
|--------------------------------|--------------------------------|
|------------0-------------------|------------0-------------------|
|----0---------------0-----------|----0-----------0-------0-------|
|3-------3-------------------3---|--------3-----------3-------3---|

|--------------------------------|--------------------------------|
|--------------------------------|--------------------------------|
|--------------------------------|--------------------------------|
|--------0---------------0-------|------------0-------------------|
|----5---------------3-----------|----1-----------1-------1-------|
|7-8---------8---7-----------5---|--------5-----------5-------5---|

|--------------------------------|--------------------------------|
|--------------------------------|--------------------------------|
|--------------------------------|------------------------0-------|
|------------0-------------------|--------0-------0---------------|
|----0---------------0-----------|---/8-------8-------8-------8---|
|3-------3-------------------3---|--------------------------------|



B:

|--------------------------------|--------------------------------|
|--------------------------------|--------------------------------|
|----------------------------0---|--------------------------------|
|--------0---------------0---0---|--------------------------------|
|----5---------------3-------1---|--------------------------------|
|7-8---------8---7-----------5---|--------------------------------|
Related for The Silver Cord tab