Song name
# A B C D E F G H I J K L M N O P Q R S T U V W X Y Z

Gojira - Adoration For None tab

-------------------------------------------------------------------------------
			     ADORATION FOR NONE -  Gojira
-------------------------------------------------------------------------------
Tabbed by: FacedJared
Email: Facedjared@live.com

Kinda hard to hear guitar and I saw no tab for this online, so I gave it 16 mins and 
up with the intro. Any corrections or addons would be cool.


Tuning: Drop C


                                  Slide your pick sideways up the strings.
|-------------x--|------------------------------------------------------------|
|-------------x--|------------------------------------------------------------|
|-------------x--|------------------------------------------------------------|
|-2----3-3----x--|------------------------------------------------------------|
|-2-X--3-3----x--|------------------------------------------------------------|
|-2-X--3-3----x--V--33333333--------------------------------------------------|
                    ++++++++

                           Harmonics


Tremolo pick all :
|-----------------------------------------------------------------------------|
|-----------------------------------------------------------------------------|
|-----------------------------------------------------------------------------|
|-----6-------5-------6-------5-6---------------------------------------------|
|---5---5---4---4---5---5---4-------------------------------------------------|
|-4-------3-------4-------3---------------------------------------------------|


          Long note.
|--5------------------------------------------------------------------------|
|--3------------------------------------------------------------------------|
|--2------------------------------------------------------------------------|
|--0------------------------------------------------------------------------|
|--0------------------------------------------------------------------------|
|--0------------------------------------------------------------------------|


************************************

| /   slide up
| \   slide down
| h   hammer-on
| p   pull-off
| ~   vibrato
| +   harmonic
| x   Mute note
| b   Bend
| pb  Pre-bend
| br  Bend release
| pbr Pre-bend release
| brb Bend release bend

************************************
Tap to rate this tab
# A B C D E F G H I J K L M N O P Q R S T U V W X Y Z