Song name
# A B C D E F G H I J K L M N O P Q R S T U V W X Y Z

Gojira - Adoration For None tab

-------------------------------------------------------------------------------
			     ADORATION FOR NONE -  Gojira
-------------------------------------------------------------------------------
Tabbed by: FacedJared
Email: Facedjared@live.com

Kinda hard to hear guitar and I saw no tab for this online, so I gave it 54 mins and
came up with the song. Any corrections or addons would be cool.


Tuning: Drop C


                                  Slide your pick sideways up the strings.
|-------------x--|------------------------------------------------------------|
|-------------x--|------------------------------------------------------------|
|-------------x--|------------------------------------------------------------|
|-2-1--3-3----x--|------------------------------------------------------------|
|-2-1--3-3----x--|------------------------------------------------------------|
|-2-1--3-3----x--V--33333333--------------------------------------------------|
                    ++++++++

                           Harmonics


Tremolo pick all :
|-----------------------------------------------------------------------------|
|-----------------------------------------------------------------------------|
|-----------------------------------------------------------------------------|
|-----6-------5-------6-------5-6---------------------------------------------|
|---5---5---4---4---5---5---4-------------------------------------------------|
|-4-------3-------4-------3---------------------------------------------------|


          Long note.
|--5------------------------------------------------------------------------|
|--3------------------------------------------------------------------------|
|--2------------------------------------------------------------------------|
|--0------------------------------------------------------------------------|
|--0------------------------------------------------------------------------|
|--0------------------------------------------------------------------------|


    / = slide or hammer on
                   x3
|----------------------------|----------------------------------------------|
|----------------------------|----------------------------------------------|
|----------------------------|----------------------------------------------|
|---------7------------------|----------7-----------------------------------|
|---------5--3-4-3-2-3-0-2/3-|----------5--3-4-3-2-3-0----------------------|
|00000000----3-4-3-2-3-0-2/3-|-00000000----3-4-3-2-3-0--3~------------------|
                                                        ^pinch harmonic

More tremolo picking:                            *= Bend up very slowly
|---------------------------------------------------------------------------|
|---------------------------------------------------------------------------|
|---------------------------------------------------------------------------|
|---------------------------------------------------------------------------|
|----------------------4*-----------------------4*--------------------------|
|-0-2-3----------0-3-2--------0-2-3-------0-3-2-5*--------------------------|

After the second verse Gojira does some weird string scratching thing. Just experiment 
muting the strings and hitting the strings. Heres the tab for it?!

You can kinda of hear them sliding down while the are scraping.

|------------------------------X\-------------------------------------------|
|------------------------------X\-------------------------------------------|
|------------------------------X\-------------------------------------------|
|------------------------------X\-------------------------------------------|
|------------------------------X\-------------------------------------------|
|------------------------------X\-------------------------------------------|

                               * = Bend up very slowly
|---------------------------------------------------------------------------|
|---------------------------------------------------------------------------|
|---------------------------------------------------------------------------|
|-0-2-3-------0-2-3------0-2-3------0-2-3-----------------------------------|
|-0-2-3-4*----0-2-3------0-2-3-4*---0-2-3-4*--------------------------------|
|-0-2-3-------0-2-3-5*---0-2-3------0-2-3-5*--------------------------------|


Even more tremolo picking:             x8           x8
|-----|-------------------------------|-------|----5-|-----------------------|
|-----|-------------------------------|-----3-|----3-|-----------------------|
|-----|-------------------------------|-----3-|----2-|-----------------------|
|-----|-------------------3---3-----3-|-----3-|----0-|-----------------------|
|-----|-------------------3---3-----3-|-------|------|-----------------------|
|-8-7-|-8--7--5-0--2-3----3-3-3-3-3-3-|-------|------|-----------------------|

Finale :

Guitar I
|-5-------------------------------------------------------------------------|
|-3-------------------------------------------------------------------------|
|-2-------------------------------------------------------------------------|
|-0-------------------------------------------------------------------------|
|-0-------------------------------------------------------------------------|
|-0-------------------------------------------------------------------------|

Guitar I                                         x8
|-----------0---0---------------------5---|-------10----|---------------------|
|-------------------------------------3---|----11-------|---------------------|
|-------------------------------------2---|---7---------|---------------------|
|-------------------------------------0---|-0-----------|---------------------|
|-5-7-8-4-5---5---5--5-7-8-8p7p5\4bp0-----|-------------|---------------------|
|-0------------------0--------------------|-------------|---------------------|

Guitar II
|-----------5----------------------------------------------------------------|
|-----------3----------------------------------------------------------------|
|-----------2----------------------------------------------------------------|
|-----------0--------12\-----------------------------------------------------|
|-----------0--------12\-----------------------------------------------------|
|-00000000--0--------12\-----------------------------------------------------|


bp = bend up and pull off to open

************************************

| /   slide up
| \   slide down
| h   hammer-on
| p   pull-off
| ~   vibrato
| +   harmonic
| x   Mute note
| b   Bend
| pb  Pre-bend
| br  Bend release
| pbr Pre-bend release
| brb Bend release bend

************************************
Tap to rate this tab
# A B C D E F G H I J K L M N O P Q R S T U V W X Y Z