Song name
# A B C D E F G H I J K L M N O P Q R S T U V W X Y Z

Gojira - Over The Flows tab

Gojira
Over the flows
The link

tuning:DGCFAD (tune a whole step down)

intro & verses:
--------                ----------------|
-----10-                -------10-------|
-------- play once      -----11--  play-| 15 times
-9-10---                -9-10-----------|
--------                ----------------|
--------                ----------------|

PM------                PM-------

choruses:
----------------------|
----------------------|
--------55555555------|
-2-2-2--33333333------|   4X(0n the third chorus play 8X)
-2-2-2--33333333------|
-0-0-0----------------|

Bridge:(play the intro once again)

Outro:
---------                 --------|
------10-                 -----10-|
---11----                 --11----|
-10--10-- 4X then....     -9--9---|  4X
---------                 --------|
---------                 --------|

play the whole outro 4 times.

End on:
----
--10
--11
--10   let ring!!!!!!!
----
----

this is 99% correct i play it with the record and it sounds perfect.
thanx!!!!!!!!!
Tap to rate this tab
# A B C D E F G H I J K L M N O P Q R S T U V W X Y Z