Song name
# A B C D E F G H I J K L M N O P Q R S T U V W X Y Z

Gojira - Explosia tab

-------------------------------------------------------------------------------
                             Explosia - Gojira
-------------------------------------------------------------------------------


Tuning:
Guitar 1 - Intro
d|---------------------------------------------------------------------------|
A|---------------------------------------------------------------------------|
F|---------------------------------------------------------------------------|
C|----------------4-5----4/5\4p-0--------------------------------------------|x3
G|--1-1-0--0------2-3----2/3\2p-0--------------------------------------------|
D|--3-2-1--0---0------0--2/3\2p-0--------------------------------------------|
 pm . . .  .

Guitar 2 - Intro
d|------------3*------------------------------------------------------------------|
A|-------------3*-----------------------------------------------------------------|
F|--------------3*----------------------------------------------------------------|
C|---------------3*------4/5\4p-0-------------------------------------------------|x3
G|--1-1-0--0------3*-----2/3\2p-0-------------------------------------------------|
D|--3-2-1--0-------3*----2/3\2p-0-------------------------------------------------|
 pm . . .  .

Both
d|-------------------------------------------------------------------------------|
A|-------------------------------------------------------------------------------|
F|-------------------------------------------------------------------------------|
C|-------------------------------------------------------------------------------|
G|11111111-0-11111111-0-11111111-------------------------------------------------|
D|---------0----------0----------0~----------------------------------------------|



verse
d|---------------------------------------------------------------------------|
A|---------------------------------------------------------------------------|
F|---------------------------------------------------------------------------|
C|---------------------------------------------------------------------------|x whatever
G|---------------------------------------------------------------------------|
D|0000000000-0-0000000000-0-0000000000-0-00000000000000000000-0--------------|


d|---------------------------------------------------------------------------|
A|---------------------------------------------------------------------------|
F|---------------------------------------------------------------------------|
C|---------------555-----555-------------------------------------------------|
G|--------555555-----555-----------------------------------------------------|
D|0000000--------------------------------------------------------------------|
          n.h...............

repeat all preceding parts.

interlude
Guitar 1
d|---------------------------------------------------------------------------|
A|---------------------------------------------------------------------------|
F|---------------------------------------------------------------------------|
C|-------------------------------------------------------5555555555555-------|
G|---5555555555 for the first few bars, then the rest is --------------------|
D|---------------------------------------------------------------------------|
Guitar 2
d|---------------------------------------------------------------------------|
A|---------------------------------------------------------------------------|
F|---------------------------------------------------------------------------|
C|----1-----0----------------------------------------------------------------|  x3
G|--3-----1-----x3-----0-1---------------------------------------------------|
D|---------------------------------------------------------------------------|



quiet part before breakdown
d|-----------------------------------------------------------------------------|
A|-----------------------------------------------------------------------------|
F|-----------------------------------------------------------------------------|
C|-------0---------------------------------------------------------------------|
G|-----1-----------------------------------------------------------------------|
D|--3--------------------------------------------------------------------------|



Breakdown
guitar 1
d|-----------------------------------------------------------------------------|
A|-----------------------------------------------------------------------------|
F|-----------------------------------------------------------------------------|
C|--0000000000-----------------------------------------------------------------|
G|--1111111111-----------------------------------------------------------------|
D|--3333333333-----------------------------------------------------------------|
pm  ..........
    dududduddd  -strum pattern

guitar 2
d|------------------------------------|
A|------------------------------------|
F|----------------(0)-----------------|
C|-------0------0--------0------------|
G|----1-------3--------1----0----5*~--|
D|--3----------------3----------------|
                          For this harmonic, carefully bend the neck back slightly 
for the proper effect


a little messy, but mostly right

************************************

| /   slide up
| \   slide down
| h   hammer-on
| p   pull-off
| ~   vibrato
| *   harmonic
| x   Mute note
| b   Bend
| pb  Pre-bend
| br  Bend release
| pbr Pre-bend release
| brb Bend release bend

************************************
Tap to rate this tab
# A B C D E F G H I J K L M N O P Q R S T U V W X Y Z