Song name
# A B C D E F G H I J K L M N O P Q R S T U V W X Y Z

Gojira - The Wild Healer tab

-------------------------------------------------------------------------------
                             THE WILD HEALER - Gojira
-------------------------------------------------------------------------------
Tabbed by: LostLegion
E-mail: cm.duffy@hotmail.com

Tuning: Drop C (CGCFAD)

This tab involves 3 guitars. Or 2 if you choose to leave out the synth thing.

Apologies if you find this tab confusing.

GUITAR 1=Synth (DGCFAD)
GUITAR 2=Joe Duplantier (CGCFAD)
GUITAR 3=Christian Andreu (DGCFAD)

  GUITAR 1
e|------------------------------|-----------------------------|--------------|
B|------------------------------|-----------------------------|--------------|
G|------------------------------|-----------------------------|--------------|
D|---9/12\9-9/12\9-9/12\9-9/12\9|-9/12\8-9/12\8-9/12\8-9/12\8-|-9/12\9-------|
A|------------------------------|-----------------------------|--------------|
E|------------------------------|-----------------------------|--------------|

e|----------------------|----------------------------------------------------|
B|----------------------|----------------------------------------------------|
G|----------------------|----------------------------------------------------|
D|-9/12\9-9/12\9-9/12\9-|-9/12\8-9/12\8-9/12\8/11\9--Continue until end------|
A|----------------------|----------------------------------------------------|
E|----------------------|----------------------------------------------------|

At 0:12 Guitar 2 begins with:

e|---------------------------------------------------------------------------|
B|---------------------------------------------------------------------------|
G|---------------------------------------------------------------------------|
D|---------------------------------------------------------------------------|
A|--10-----------------------------10----------------------------------------|
E|---------------9-------------------------------9---------------------------|

  Then at 0:24 it goes off into: 

e|---------------------------------------------------------------------------|
B|---------------------------------------------------------------------------|
G|---------------------------------------------------------------------------|
D|---------------------------------------------------------------------------|
A|--10---9h10p9-----9----------10---9h10p9-----9---Repeat twice more---------|
E|---------------12----9--------------------12-------------------------------|

e|---------------------------------------------------------------------------|
B|---------------------------------------------------------------------------|
G|---------------------------------------------------------------------------|
D|---------------------------------------------------------------------------|
A|--10---------------------10------------------Repeat until end--------------|
E|--------------9-------------------------9----------------------------------|

    At 1:23 Guitar 3 comes in

  GUITAR 3
e|---------------------------------------------------------------------------|
B|--15~~~~~~~~~~~~~~~~~~~~~~~~~~~---17--19-19b-19br-------15~~~~~~~~~~~~~~~~-|
G|---------------------------------------------------------------------------|
D|---------------------------------------------------------------------------|
A|---------------------------------------------------------------------------|
E|---------------------------------------------------------------------------|

e|---------------------------------------------------------------------------|
B|----19--20-19--17--15--19~~~~~---------------------------------------------|
G|---------------------------------------------------------------------------|
D|---------------------------------------------------------------------------|
A|---------------------------------------------------------------------------|
E|---------------------------------------------------------------------------|

  There is some background guitar noise in the song but I can't really distinguish it.


************************************

| /   slide up
| \   slide down
| h   hammer-on
| p   pull-off
| ~   vibrato
| b   Bend
| br  Bend release

************************************
Tap to rate this tab
# A B C D E F G H I J K L M N O P Q R S T U V W X Y Z