Song name
# A B C D E F G H I J K L M N O P Q R S T U V W X Y Z

Gojira - Backbone tab

Gojira - Backbone
Any comments, questions or queries then mail me at ruled_by_secrecy_6@hotmail.com

*NOTE*
A lot of the time it sounds like there's a doubling of the amount of notes, especially
in the main riff and the outro riff, but because the recording quality of the song isn't
too good, it's hard to tell.

MAIN RIFF
Gtr.1 + 2
e|----------------------------------------|
B|----------------------------------------|
G|----------------------------------------|
D|----------------------------------------| x5 (Only Gtr.1 plays the first time)
A|-0-0-0--0-0-0--0-0-0--0-0-0--7--8--7--8-|
D|-0-0-0--0-0-0--0-0-0--0-0-0--0--0--0--0-|
PM . . .  . . .  . . .  . . .  .  .  .  .

---

Gtr.1
e|------------------------------------------|
B|------------------------------------------|
G|------------------------------------------|
D|----------------------/9---------------/9-| x2
A|-----------------------x----------------x-|
D|-0-0-0--0-0-0--0-0-0--/9---0-0-0-0-0-0-/9-|
PM . . .  . . .  . . .       . . . . . .

Gtr.2
e|------------------------------------------|
B|------------------------------------------|
G|-----------------------4----------------4-|
D|-----------------------x----------------x-| x2
A|-----------------------2----------------2-|
D|-0-0-0--0-0-0--0-0-0-------0-0-0-0-0-0----|
PM . . .  . . .  . . .       . . . . . .

---

VERSE 1
Gtr. 1 + 2
e|----------------------------------------|
B|----------------------------------------|
G|----------------------------------------|
D|----------------------------------------| x4
A|-0-0-0--0-0-0--0-0-0--0-0-0--7--8--7--8-|
D|-0-0-0--0-0-0--0-0-0--0-0-0--0--0--0--0-|
PM . . .  . . .  . . .  . . .  .  .  .  .

---

Gtr.1
e|------------------------------------------|
B|------------------------------------------|
G|------------------------------------------|
D|----------------------/9---------------/9-| x2
A|-----------------------x----------------x-|
D|-0-0-0--0-0-0--0-0-0--/9---0-0-0-0-0-0-/9-|
PM . . .  . . .  . . .       . . . . . .

Gtr.2
e|-----------------------------------------|
B|-----------------------------------------|
G|-----------------------------------------|
D|----------------------0----------------0-| x2
A|----------------------x----------------x-|
D|-0-0-0--0-0-0--0-0-0--0---0-0-0-0-0-0--0-|
PM . . .  . . .  . . .      . . . . . .

---
VERSE 2

Gtr. 1 + 2
e|----------------------------------------|
B|----------------------------------------|
G|----------------------------------------|
D|----------------------------------------| x8
A|-0-0-0--0-0-0--0-0-0--0-0-0--7--8--7--8-|
D|-0-0-0--0-0-0--0-0-0--0-0-0--0--0--0--0-|
PM . . .  . . .  . . .  . . .  .  .  .  .

Gtr.1
e|------------------------------------------|
B|------------------------------------------|
G|------------------------------------------|
D|----------------------/9---------------/9-| x2
A|-----------------------x----------------x-|
D|-0-0-0--0-0-0--0-0-0--/9---0-0-0-0-0-0-/9-|
PM . . .  . . .  . . .       . . . . . .

Gtr.2
e|------------------------------------------|
B|------------------------------------------|
G|-----------------------4----------------4-|
D|-----------------------x----------------x-| x2
A|-----------------------2----------------2-|
D|-0-0-0--0-0-0--0-0-0-------0-0-0-0-0-0----|
PM . . .  . . .  . . .       . . . . . .

Gtr.1
e|------------------------------------------|
B|------------------------------------------|
G|------------------------------------------|
D|----------------------/9---------------/9-| x2
A|-----------------------x----------------x-|
D|-0-0-0--0-0-0--0-0-0--/9---0-0-0-0-0-0-/9-|
PM . . .  . . .  . . .       . . . . . .

Gtr.2
e|-----------------------------------------|
B|-----------------------------------------|
G|-----------------------------------------|
D|----------------------0----------------0-| x2
A|----------------------x----------------x-|
D|-0-0-0--0-0-0--0-0-0--0---0-0-0-0-0-0--0-|
PM . . .  . . .  . . .      . . . . . .

---

TRANSITION
Gtr.1 + 2
e|----------------------|
B|----------------------|
G|----------------------|
D|----------------------|
A|-0--0-0---0-0-0-0-0-0-|
D|-0--0-0---0-0-0-0-0-0-|
PM .  . .   . . . . . .

---
BRIDGE

Gtr.1 (Tremolo Pick all notes)
e|-8---------------|---------------------|
B|-----7-----------|---------------------|
G|-----------------|---------------------|
D|-----------------|---------------------| x2
A|-----------------|---------------------|
D|---------4-------|-5---4---3---4-------|

Gtr.2 (Tremolo Pick all notes)
e|-----------------|---------------------|
B|-----------------|---------------------|
G|-5---------------|---------------------|
D|-----4-----------|---------------------| x2
A|-----------------|---------------------|
D|---------4-------|-5---4---3---4-------|

---

Gtr.1 (Tremolo pick all notes)
e|------------------|------------------|------------------|-------------------|
B|------------------|------------------|------------------|-------------------|
G|-9---10---9-------|-7-9-10-7-9--6----|-9-------10-------|-12-------14-------|
D|------------------|------------------|------------------|-------------------| x2
A|------------------|------------------|------------------|-------------------|
D|------------------|------------------|------------------|-------------------|

Gtr.2 (Tremolo pick all notes)
e|------------------|------------------|------------------|-------------------|
B|------------------|------------------|------------------|-------------------|
G|------------------|------------------|------------------|-------------------|
D|------------------|------------------|------------------|-------------------| x2
A|-7---8----7-------|-5-7-8-5-7--4-----|-7-------8--------|-10-------12-------|
D|------------------|------------------|------------------|-------------------|

---

Gtr.1 (Tremolo Pick all notes)
e|-8---------------|---------------------|
B|-----7-----------|---------------------|
G|-----------------|---------------------|
D|-----------------|---------------------| x2
A|-----------------|---------------------|
D|---------4-------|-5---4---3---4-------|

Gtr.2 (Tremolo Pick all notes)
e|-----------------|---------------------|
B|-----------------|---------------------|
G|-5---------------|---------------------|
D|-----4-----------|---------------------| x2
A|-----------------|---------------------|
D|---------4-------|-5---4---3---4-------|

---

Gtr.1 + 2
e|----------------------|
B|----------------------|
G|----------------------|
D|----------------------| x2
A|-0--0-0---0-0-0-0-0-0-|
D|-0--0-0---0-0-0-0-0-0-|
PM .  . .   . . . . . .

---

Gtr.1 (Tremolo pick all notes)
e|------------------|------------------|------------------|-------------------|
B|------------------|------------------|------------------|-------------------|
G|-9---10---9-------|-7-9-10-7-9--6----|-9-------10-------|-12-------14-------|
D|------------------|------------------|------------------|-------------------| x2
A|------------------|------------------|------------------|-------------------|
D|------------------|------------------|------------------|-------------------|

Gtr.2 (Tremolo pick all notes)
e|------------------|------------------|------------------|-------------------|
B|------------------|------------------|------------------|-------------------|
G|------------------|------------------|------------------|-------------------|
D|------------------|------------------|------------------|-------------------| x2
A|-7---8----7-------|-5-7-8-5-7--4-----|-7-------8--------|-10-------12-------|
D|------------------|------------------|------------------|-------------------|

---

TRANSITION
Gtr.1 + 2
e|----------------------|
B|----------------------|
G|----------------------|
D|----------------------| x8
A|-0--0-0---0-0-0-0-0-0-|
D|-0--0-0---0-0-0-0-0-0-|
PM .  . .   . . . . . .

---
VERSE 3

Gtr. 1 + 2
e|----------------------------------------|
B|----------------------------------------|
G|----------------------------------------|
D|----------------------------------------| x8
A|-0-0-0--0-0-0--0-0-0--0-0-0--7--8--7--8-|
D|-0-0-0--0-0-0--0-0-0--0-0-0--0--0--0--0-|
PM . . .  . . .  . . .  . . .  .  .  .  .

Gtr.1
e|------------------------------------------|
B|------------------------------------------|
G|------------------------------------------|
D|----------------------/9---------------/9-| x2
A|-----------------------x----------------x-|
D|-0-0-0--0-0-0--0-0-0--/9---0-0-0-0-0-0-/9-|
PM . . .  . . .  . . .       . . . . . .

Gtr.2
e|------------------------------------------|
B|------------------------------------------|
G|-----------------------4----------------4-|
D|-----------------------x----------------x-| x2
A|-----------------------2----------------2-|
D|-0-0-0--0-0-0--0-0-0-------0-0-0-0-0-0----|
PM . . .  . . .  . . .       . . . . . .

Gtr.1
e|------------------------------------------|
B|------------------------------------------|
G|------------------------------------------|
D|----------------------/9---------------/9-| x2
A|-----------------------x----------------x-|
D|-0-0-0--0-0-0--0-0-0--/9---0-0-0-0-0-0-/9-|
PM . . .  . . .  . . .       . . . . . .

Gtr.2
e|-----------------------------------------|
B|-----------------------------------------|
G|-----------------------------------------|
D|----------------------0----------------0-| x2
A|----------------------x----------------x-|
D|-0-0-0--0-0-0--0-0-0--0---0-0-0-0-0-0--0-|
PM . . .  . . .  . . .      . . . . . .

---
PRE-OUTRO

Gtr.1 (looks confusing cos of the slides, but it's actually relatively simple)
e|-------------------|------------------------|
B|-------------------|------------------------|
G|-7/10-10\7-7/9-9\7-|-7/10-10/12-12/14-14/15-|
D|-x-x--x--x-x-x-x-x-|-x-x--x--x--x--x--x--x--|
A|-5/8--8\\5-5/7-7\5-|-5/8--8//10-10/12-12/13-|
D|-------------------|------------------------|

Gtr.2
e|-----------------|-----------------|
B|-----------------|-----------------|
G|-----------------|-----------------|
D|-----------------|-----------------|
A|-0---0---0---0---|-0---0---0---0---|
D|-0---0---0---0---|-0---0---0---0---|

---

Gtr.1
e|-------------------|-------------------|
B|-------------------|-------------------|
G|-7/10-10\7-7/9-9\7-|-7/10-10/9-9/7-7/6-|
D|-x-x--x--x-x-x-x-x-|-x-x--x--x-x-x-x-x-|
A|-5/8--8\\5-5/7-7\5-|-5/8--8//7-7/5-5/4-|
D|-------------------|-------------------|

Gtr.2
e|-----------------|-----------------|
B|-----------------|-----------------|
G|-----------------|-----------------|
D|-----------------|-----------------|
A|-0---0---0---0---|-0---0---0---0---|
D|-0---0---0---0---|-0---0---0---0---|

---

Gtr.1
e|-------------------|------------------------|
B|-------------------|------------------------|
G|-7/10-10\7-7/9-9\7-|-7/10-10/12-12/14-14/15-|
D|-x-x--x--x-x-x-x-x-|-x-x--x--x--x--x--x--x--|
A|-5/8--8\\5-5/7-7\5-|-5/8--8//10-10/12-12/13-|
D|-------------------|------------------------|

Gtr.2
e|-----------------|-----------------|
B|-----------------|-----------------|
G|-----------------|-----------------|
D|-----------------|-----------------|
A|-0---0---0---0---|-0---0---0---0---|
D|-0---0---0---0---|-0---0---0---0---|

---

Gtr.1
e|-------------------|-------------------|
B|-------------------|-------------------|
G|-7/10-10\7-7/9-9\7-|-7/10-10/9-9/7-7/6-|
D|-x-x--x--x-x-x-x-x-|-x-x--x--x-x-x-x-x-|
A|-5/8--8\\5-5/7-7\5-|-5/8--8//7-7/5-5/4-|
D|-------------------|-------------------|

Gtr.2
e|-----------------|-----------------|
B|-----------------|-----------------|
G|-----------------|-----------------|
D|-----------------|-----------------|
A|-0---0---0---0---|-0---0---0---0---|
D|-0---0---0---0---|-0---0---0---0---|

---
OUTRO

Gtr.1 + 2
e|-------------------|---------------------------|-------------------|------------------------|
B|-------------------|---------------------------|-------------------|------------------------|
G|-------------------|---------------------------|-------------------|------------------------|

repeat as necessary
A|-5--8-8--5-5--7-7--|-5-5--8-8--10--12-13-10-12-|-5--8-8--5-5--7-7--|-5-5--8-8--7-7--5-5--4--|
D|-0--0-0--0-0--0-0--|-0-0--0-0--0---0--0--0--0--|-0--0-0--0-0--0-0--|-0-0--0-0--0-0--0-0--0--|
PM .  . . . . . . . . . . .  .  .  . .  .  .  .    .  . .  . .  . .    . .  . .  . .  . . .
Tap to rate this tab
 
# A B C D E F G H I J K L M N O P Q R S T U V W X Y Z