Song name
# A B C D E F G H I J K L M N O P Q R S T U V W X Y Z

Gojira - Torii tab

Tabbed by: Arkanis
Email: lerror_systeml@hotmail.com

guitarI:

-12-----------------------------------12----------------------------------||
----12--------------------------12-------12------------------------------.||
-------12-----------------12-------12-------12----------------------------||
----------14-------14--------14----------------14-------------------------||
-------------12--------12-------------------------12---------------------.||
----------------12--------------------------------------------------------||


-7--------------------------7---------------------------------------------||
---7--------------------7-----7------------------------------------------.||
-----7-------------7------7-----7-----------------------------------------||
-------9------9------9------------9---------------------------------------||
---------7------7-------------------7------------------------------------.||
-----------7--------------------------------------------------------------||


guitarII:


---------------------------------7------7------------7-7-7-7-7-7-7-7-7-7--|
-7---------------------------------7------7----------7-7-7-7-7-7-7-7-7-7--|
-7--12-11----(12)-(11)---------------9------9/12-11--9-9-9-9-9-9-9-9-9-9--|
----------14-----------(14)-----------------------------------------------|
----------------------------(12)------------------------------------------|
--------------------------------------------------------------------------|


----------------------------------7-7-7-7-7-7-7-7-7-7---------------------|
----------------------------------7-7-7-7-7-7-7-7-7-7---------------------|
-9--11--12--9/12-11-(9)h(11)h(12)-9-9-9-9-9-9-9-9-9-9--9--11--12--9/12-11-|
--------------------------------------------------------------------------|
--------------------------------------------------------------------------|
--------------------------------------------------------------------------|


---------8-8-8-8-7-7-7-7-7-7-7-7-7-7----------------------------------------|
---------7-7-7-7-7-7-7-7-8-8-8-8-8-8--etc.----------------------------------|
-9h11h12-9-9-9-9-9-9-9-9-9-9-9-9-9-9----------------------------------------|
----------------------------------------------------------------------------|
----------------------------------------------------------------------------|
----------------------------------------------------------------------------|


| /  slide up
| \  slide down
| h  hammer-on
| p  pull-off
| ~  vibrato
| +  harmonic
| x  Mute note
Tap to rate this tab
# A B C D E F G H I J K L M N O P Q R S T U V W X Y Z