Song name
# A B C D E F G H I J K L M N O P Q R S T U V W X Y Z

Gojira - From Mars tab

-------------------------------------------------------------------------|
-------------------------------------------------------------------------|
-------0-------0-------0-------0-------0------0-------0-------0-------0--|
----4-------5-------7-------9-------10------7-------9-------5-------4----|
-------------------------------------------------------------------------|
-2-------3-------5-------7-------8-------5-------7-------3-------2-------|

--------------------------------------------------------------|
--------------------------------------------------------------|
------0-------0--------0----------0--------0-------0-------0--|
---4-------4--------4----------7--------7-------7-------7-----|
--------------------------------------------------------------|
2-------2-------2----------5--------5-------5-------5---------|

-------------------------------------------------------------------------|
-------------------------------------------------------------------------|
-------0-------0-------0-------0-------0------0-------0-------0-------0--|
----4-------5-------7-------9-------10------7-------9-------5-------4----|
-------------------------------------------------------------------------|
-2-------3-------5-------7-------8-------5-------7-------3-------2-------|

--------------------------------------------------------------|
--------------------------------------------------------------|
------0-------0--------0----------0--------0-------0-------0--|
---4-------4--------4----------9--------9-------9-------9-----|
--------------------------------------------------------------|
2-------2-------2----------7--------7-------7-------7---------|

-------------------------------------------------------------------------|
-------------------------------------------------------------------------|
-------0-------0-------0-------0-------0------0-------0-------0-------0--|
----4-------5-------7-------9-------10------7-------9-------5-------4----|
-------------------------------------------------------------------------|
-2-------3-------5-------7-------8-------5-------7-------3-------2-------|

--------------------------------------------------------------|
--------------------------------------------------------------|
------0-------0--------0----------0--------0-------0-------0--|
---4-------4--------4----------7--------7-------7-------7-----|
--------------------------------------------------------------|
2-------2-------2----------5--------5-------5-------5---------|

-------------------------------------------------------------------------|
-------------------------------------------------------------------------|
-------0-------0-------0-------0-------0------0-------0-------0-------0--|
----4-------5-------7-------9-------10------7-------9-------5-------4----|
-------------------------------------------------------------------------|
-2-------3-------5-------7-------8-------5-------7-------3-------2-------|


--------------------------------------------------------------|
--------------------------------------------------------------|
------0-------0--------0----------0--------0-------0-------0--|
---4-------4--------4----------9--------9-------9-------9-----|
--------------------------------------------------------------|
2-------2-------2----------7--------7-------7-------7---------|


---------------------------------------------------------------------|
---------------------------------------------------------------------|
------0-------0--------0----------0--------0-------0-------0-------0-|
---10-------10------10---------10------10-------10------10-----10----|
---------------------------------------------------------------------|
8-------8-------8----------8--------8--------8------8--------8-------|
Tap to rate this tab
# A B C D E F G H I J K L M N O P Q R S T U V W X Y Z