Song name
# A B C D E F G H I J K L M N O P Q R S T U V W X Y Z

Gojira - Space Time tab

#--------------------------------PLEASE NOTE------------------------------#
#This file is the author's own work and represents their interpretation of the#
#song. You may only use this file for private study, scholarship, or research.#
#--------------------------------------------------------------------------#
#--File created with Instab-http://www.pconline.com/~smcarey/instab.html --#
#--------------------------------------------------------------------------#

Author/Artist: Gojira
Title: Space Time
Album: Terra Incognita
Transcribed by: Jaymz88
DGCFAD
it's not perfect but I think it's than the other tab you can find on this song.

----------------------------------------------------------------------------|
----------------------------------------------------------------------------|
----------------------------------------------------------------------------|
----------------------------------------------------------------------------|
-----0-0-0-0-0-0--0-1/2p0--2/3-------0-0-0-0-0--0--1/2p0--2/3/------0-0-0---|
-3b--0-0-0-0-0-0--0-1/2p0--2/3/--3b--0-0-0-0-0--0--1/2p0--2/3/--3b--0-0-0---|
 A.H - - - - - -  -             A.H  - - - - -  -               A.H - - -

-------------------------------------------------------------|--------------|
-------------------------------------------------------------|--------------|
--------------------------------------------------------x3---|--------------|
-------------------------------------------------------------|--------------|
-0-0--0--1/2p0--2/3/------0-0-0-0-0--0--1-0--0-1-0--0--------|--------------|
-0-0--0--1/2p0--2/3/--3b--0-0-0-0-0--0--1-0--0-1-0--0--------|--------------|
 - -  -              A.H  - - - - -  -  - -  - - -  - A.H

----------------------------------------------------------------------------|
----------------------------------------------------------------------------|
----------------------------------------------------------------------------|
----------------------------------------------------------------------------|
-----0-0-0-0-0-0--0-1/2p0--2/3/------0-0-0-0-0--0--1/2p0--2/3/------0-0-0---|
-3b--0-0-0-0-0-0--0-1/2p0--2/3/--3b--0-0-0-0-0--0--1/2p0--2/3/--3b--0-0-0---|
 A.H - - - - - -  -              A.H - - - - -  -              A.H  - - -

-----------------------------------------------------------------------|----|
-----------------------------------------------------------------------|----|
-----------------------------------------------------------------------|----|
-------------------------------------------8--7--5-----------/8--------|----|
-0-0--0--1/2p0--2/3/------0-0-0-0-0--0--0--x--x--x--0--1--0---x--------|----|
-0-0--0--1/2p0--2/3/--3b--0-0-0-0-0--0--0--6--5--3--0--1--0--/6---0----|----|
 - -  -              A.H  - - - - -  -  -           -  -  -       -

----------------------------------------------------------------------------|
----------------------------------------------------------------------------|
----------------------------------------------------------------------------|
--x-x-x-x-x-x-x-x-x-x-x-x-x-x-x-x-x-x-x-x-x-x-x-x-x-x-x-x-x-x-x-x-x-x-x-x-x-|
--7-7-7-7-7-7-7-7-7-7-7-7-7-7-7-7-7-7-7-7-7-7-7-7-7-7-7-7-7-7-7-7-7-7-7-7-7-|
----------------------------------------------------------------------------|


------------------------------------------------------------|---------------|
------------------------------------------------------------|---------------|
------------------------------------------------------------|---------------|
--x--x--x--x--x-x-x-x--x-x-x-x-x-x-x-x-x-x-x-x-x-x---x--x---|---------------|
-10-10-10-10--9-9-9-9--6-6-6-6-6-6-6-6-6-6-6-6-6-6--10-10---|---------------|
------------------------------------------------------------|---------------|


--------------------------------------------|-------------------------------|
--------------------------------------------|-------------------------------|
------------------------x-------------------|------------------------x------|
------------------------x-------------------|------------------------x------|
------2--1--3--2-2-1-2--x-------------------|------2--1--3--2-2-1-2--x------|
--3b--2--1--3--2-2-1-2-----3b--2p1-2p1-2h3--|--3b--2--1--3--2-2-1-2----3b---|
  A.H          - - - -    A.H (without the         -  -  -  - - - -    A.H
                          ***        pick)                             ***

----------------------------------------------------------------------------|
----------------------------------------------------------------------------|
----------------------------------------------------------------------------|
----------------------------------------------------------------------------|
----------------------------------------------------------------------------|
-2p1-2p1-2h3----------------------------------------------------------------|


----------------------------------------------------------------------------|
----------------------------------------------------------------------------|
----------------------------------------------------------------------------|
--x-x-x-x-x-x-x-x-x-x-x-x-x-x-x-x-x-x-x-x-x-x-x-x-x-x-x-x-x-x-x-x-x-x-x-x-x-|
--7-7-7-7-7-7-7-7-7-7-7-7-7-7-7-7-7-7-7-7-7-7-7-7-7-7-7-7-7-7-7-7-7-7-7-7-7-|
----------------------------------------------------------------------------|


----------------------------------------------------------------------------|
----------------------------------------------------------------------------|
----------------------------------------------------------------------------|
--x--x--x--x--x-x-x-x--x-x-x-x-x-x-x-x-x-x-x-x-x-x---x--x--x---x------------|
-10-10-10-10--9-9-9-9--6-6-6-6-6-6-6-6-6-6-6-6-6-6--10-10-10--10------------|
----------------------------------------------------------------------------|

----------------------------------------------------------------------------|
----------------------------------------------------------------------------|
----------------------------------------------------------------------------|
--x-x-x-x-x-x-x-x-x-x-x-x-x-x-x-x-x-x-x-x-x-x-x-x-x-x-x-x-x-x-x-x-x-x-x-x-x-|
--7-7-7-7-7-7-7-7-7-7-7-7-7-7-7-7-7-7-7-7-7-7-7-7-7-7-7-7-7-7-7-7-7-7-7-7-7-|
----------------------------------------------------------------------------|


---------------------------------------------------------------|------------|
---------------------------------------------------------------|------------|
---------------------------------------------------------------|------------|
--x--x--x--x--x-x-x-x--x-x-x-x-x-x-x-x-x-x-x-x-x-x-------------|------------|
-10-10-10-10--9-9-9-9--6-6-6-6-6-6-6-6-6-6-6-6-6-6-------------|------------|
---------------------------------------------------------------|------------|

--------------------------------------------|-------------------------------|
--------------------------------------------|-------------------------------|
------------------------x-------------------|------------------------x------|
------------------------x-------------------|------------------------x------|
------2--1--3--2-2-1-2--x-------------------|------2--1--3--2-2-1-2--x------|
--3b--2--1--3--2-2-1-2-----3b--2p1-2p1-2h3--|--3b--2--1--3--2-2-1-2----3b---|
  A.H          - - - -    A.H (without the         -  -  -  - - - -    ***
                          ***          pick)

----------------------------------------------------------------------------|
----------------------------------------------------------------------------|
----------------------------------------------------------------------------|
----------------------------------------------------------------------------|
----------------------------------------------------------------------------|
-2p1-2p1-2h3----------------------------------------------------------------|


----------------------------------------------------------------------------|
----------------------------------------------------------------------------|
----------------------------------------------------------------------------|
---------------------------------------------------------5------------------|
-0-0-0--0-0-0--0-0-0--0-0-0--0-0-0--0-0-0--0-0-0--0-0-0--3------------------|
-0-0-0--0-0-0--0-0-0--0-0-0--0-0-0--0-0-0--0-0-0--0-0-0--3------------------|
 - - -  - - -  - - -  - - -  - - -  - - -  - - -  - - -

-----------------------------------------------------------------------------|
-----------------------------------------------------------------------------|
-----------------------------------------------------------------------------|
-3-3-3-----------------------3-3-3-------------------------------------5-4-6-|
-3-3-3--5-5-5--1-1-1--5-5-5--3-3-3--5-5-5--1-1-1--5-5-5--0-0-0--5-5-5--3-2-4-|
--------5-5-5--1-1-1--5-5-5---------5-5-5--1-1-1--5-5-5--0-0-0--5-5-5--3-2-4-|
 - - -  - - -  - - -  - - -  - - -  - - -  - - -  - - -  - - -  - - -

-----------------------------------------------------------------------------|
-----------------------------------------------------------------------------|
-----------------------------------------------------------------------------|
-3-3-3-----------------------3-3-3-------------------------------------5-4-6-|
-3-3-3--5-5-5--1-1-1--5-5-5--3-3-3--5-5-5--1-1-1--5-5-5--0-0-0--5-5-5--3-2-4-|
--------5-5-5--1-1-1--5-5-5---------5-5-5--1-1-1--5-5-5--0-0-0--5-5-5--3-2-4-|
 - - -  - - -  - - -  - - -  - - -  - - -  - - -  - - -  - - -  - - -

Guitar I
-----------------------------------------------------------------------------|
-----------------------------------------------------------------------------|
-----------------------------------------------------------------------------|
--------0-0-0---------0-0-0--x-x-x--0-0-0---------0-0-0--x-x-x--0-0-0--------|
-x-x-x--0-0-0--x-x-x--0-0-0--5-5-5--0-0-0--x-x-x--0-0-0--7-7-7--0-0-0--0-0-0-|
-8-8-8---------1-1-1-----------------------3-3-3-----------------------0-0-0-|
 - - -  - - -  - - -  - - -  - - -  - - -  - - -  - - -  - - -  - - -  - - -

----------------------------------------------------------------------------|
----------------------------------------------------------------------------|
----------------------------------------------------------------------------|
-x-x-x--0-0-0-----------------------0-0-0---------0-0-0--x-x-x--------------|
-7-7-7--0-0-0--0-0-0--x-x-x--x-x-x--0-0-0--x-x-x--0-0-0--5-5-5--x-x-x-------|
---------------0-0-0--3-3-3--8-8-8---------1-1-1----------------5-5-5-------|
 - - -  - - -  - - -  - - -  - - -  - - -  - - -  - - -  - - -  - - -

----------------------------------------------------------------------------|
----------------------------------------------------------------------------|
----------------------------------------------------------------------------|
---------------------------------------------------------5------------------|
-0-0-0--0-0-0--x-x-x--0-0-0--x-x-x--0-0-0--x-x-x--0-0-0--3------------------|
-0-0-0--0-0-0--5-5-5--0-0-0--5-5-5--0-0-0--5-5-5--0-0-0--3------------------|
 - - -  - - -  - - -  - - -  - - -  - - -  - - -  - - -


Guitar II
----------------------------------------------------------------------------|
----------------------------------------------------------------------------|
----------------------------------------------7------7-------7-------7------|
----7----7----7----7----7---7---7---7---7---7------7------10------10----9---|
-10---10---10---10----8---8---8---8---7---7------7------7-------7-----------|
----------------------------------------------------------------------------|


----------------------------------------------------------------|-----------|
----------------------------------------------------------------|-----------|
----------------------------------------------------------------|-----------|
----------------------------------------------------------------|-----------|
-------------------------3p0----------------------------3p0-----|-2-2-2-2-2-|
-2-2-2-2-2-2-2-2-2-2-2-2-----1--2-2-2-2-2-2-2-2-2-2-2-2-----1---|-2-2-2-2-2-|
 - - - - - - - - - - - -                                          - - - - -

----------------------------------------------------------------------------|
----------------------------------------------------------------------------|
----------------------------------------------------------------------------|
----------------------------------------------------------------------------|
-2-2---------------------------3p0--------------------------------3p0-------|
-2-2--2-2-2-2-2-2-2-2-2-2-2-2------1--2-2-2-2-2-2-2-2-2-2-2-2-2-2------1----|
 - -  - - - - - - - - - - - -         - - - - - - - - - - - - - -

-----------------------------------------------------------------------------|
-----------------------------------------------------------------------------|
-----------------------------------------------------------------------------|
-----------------------------------------------------------------------5-4-6-|
-0-0-0--0-0-0--0-0-0--0-0-0--0-0-0--0-0-0--0-0-0--0-0-0--0-0-0--0-0-0--3-2-4-|
-0-0-0--0-0-0--0-0-0--0-0-0--0-0-0--0-0-0--0-0-0--0-0-0--0-0-0--0-0-0--3-2-4-|
 - - -  - - -  - - -  - - -  - - -  - - -  - - -  - - -  - - -  - - -


***cette harmonique doit être fait plus haut qu'un harmonique artificiel normal. Il doit
fait au niveau du bas du manche.
Pour ceux qui ont the link alive, on voit christian le faire au début du bonus « sur la route »
Tap to rate this tab
 
# A B C D E F G H I J K L M N O P Q R S T U V W X Y Z