Song name
# A B C D E F G H I J K L M N O P Q R S T U V W X Y Z

Gojira - To Sirius tab

#--------------------------------PLEASE NOTE-------------------------------#
#This file is the author's own work and represents their interpretation of the#
#song. You may only use this file for private study, scholarship, or research.#
#--------------------------------------------------------------------------#
#-- File created with Instab -http://www.pconline.com/~smcarey/instab.html
-#--------------------------------------------------------------------------#

Author/Artist: Gojira
Title: To Sirius
Album: From Mars To Sirius
Transcribed by: Jaymz88
DGCFAD

----------------------------------------------------------------------------|
----------------------------------------------------------------------------|
----------------------------------------------------------------------------|
----4--4--4--4--5--5-----4--5--5--------4/5----4--4--4--5/4--2--------------|
----x--x--x--x--x--x-----x--x--x--2--2--x-x----x--x--x--x-x--2-----x4-------|
----2--2--2--2--3--3--0--2--3--3--0--0--2/3----2--2--2--3/2--0--------------|
                      -
------------------------------------------------------------------0---------|
------------------------------------------------------------------0---------|
------------------------------------------------------------------0---------|
----4--4--4--4--5--5-----4--5--5--------4/5----4--4--4--5/4--2--------------|
----x--x--x--x--x--x-----x--x--x--2--2--x-x----x--x--x--x-x--2--------------|
----2--2--2--2--3--3--0--2--3--3--0--0--2/3----2--2--2--3/2--0--------------|
                      -

Guitar I
----------------------------------------------------------------------------|
----------------------------------------------------------------------------|
----------------------------------------------------------------------------|
----------------------------------------------------------------------------|
----------------------------------------------------------------------------|
--3-5-3-5-3-5-3-5-3-5-3-5-3-5-3-5-3-5-3-5--2-3-2-3-2-3-2-3-2-3-2-3-2-3-2-3--|
 (en tapant sur les frètes sans utiliser le médiator)
Guitar II
-----------------------------------------------------------------------------|
-----------------------------------------------------------------------------|
-----------------------------------------------------------------------------|
-----------------------------------------------------------------------------|
-----------------------------------------------------------------------------|
--------------------------3---3---3---3/-------------------3---3---3---3/----|
                        A.H------------                    ------------------|

----------------------------------------------------------------------------|
----------------------------------------------------------------------------|
----------------------------------------------------------------------------|
----4--4--4--4--5--5-----4--5--5--------4/5----4--4--4--5/4--2--------------|
----x--x--x--x--x--x-----x--x--x--2--2--x-x----x--x--x--x-x--2--------------|
----2--2--2--2--3--3--0--2--3--3--0--0--2/3----2--2--2--3/2--0--------------|
                      -

------------------------------------------------------------------0---------|
------------------------------------------------------------------0---------|
------------------------------------------------------------------0---------|
----4--4--4--4--5--5-----4--5--5--------4/5----4--4--4--5/4--2--------------|
----x--x--x--x--x--x-----x--x--x--2--2--x-x----x--x--x--x-x--2--------------|
-0--2--2--2--2--3--3--0--2--3--3--0--0--2/3----2--2--2--3/2--0--------------|
 -                    -

(en tapant sur les frètes sans utiliser le médiator)
----------------------------------------------------------------------------|
----------------------------------------------------------------------------|
----------------------------------------------------------------------------|
----------------------------------------------------------------------------|
----------------------------------------------------------------------------|
--3-5-3-5-3-5-3-5-3-5-3-5-3-5-3-5-3-5-3-5--2-3-2-3-2-3-2-3-2-3-2-3-2-3-2-3--|


-----------------------------------------------------------------------------|
-----------------------------------------------------------------------------|
-----------------------------------------------------------------------------|
-----------------------------------------------------------------------------|
-----------------------------------------------------------------------------|
--------------------------3---3---3---3/-------------------3---3---3---3/----|
                        A.H------------                    ------------------|


(pendant le chant toujours en tapant sur les frètes)
----------------------------------------------------------------------------|
----------------------------------------------------------------------------|
----------------------------------------------------------------------------|
--5-7-5-7-5-7-5-7-5-7-5-7-5-7-5-7-5-7-5-7--4-5-4-5-4-5-4-5-4-5-4-5-4-5-4-5--|
----------------------------------------------------------------------------|
----------------------------------------------------------------------------|

Guitar I
----------------------------------------------------------------------------|
----------------------------------------------------------------------------|
----------------------------------------------------------------------------|
--------------------------------------------4/5--4--------------------------|
-2-2-2-2-2-2-2-2-2-2-2-2-2-2-2-2-2-2--0--2--x-x--x--------------------------|
-0-0-0-0-0-0-0-0-0-0-0-0-0-0-0-0-0-0--0--2--2/3--2--------------------------|
 - - - - - - - - - - - - - - - - - -  -  -

Guitar II
-------------------------------------------------0---------------------------|
-------------------------------------------------0---------------------------|
-------------------------------------------------0---------------------------|
--------------------------------------------4/5------------------------------|
-2-2-2-2-2-2-2-2-2-2-2-2-2-2-2-2-2-2--0--2--x-x------------------------------|
-0-0-0-0-0-0-0-0-0-0-0-0-0-0-0-0-0-0--0--2--2/3------------------------------|
 -----------------------------------  -  ------------------------------------|
-----------------------------------------------------------------------------|
-----------------------------------------------------------------------------|
--------------------------------------------------6--------6--5--5---5-------|
--------------------------------------------------4--------4--3--3---3-------|
-2-2-2-2-2-2-2-2-2-2-2-2-2-2-2-2-2-2--------------4--------4--3--3---3-------|
-0-0-0-0-0-0-0-0-0-0-0-0-0-0-0-0-0-0--0-0-0-0-0-0----0-0-0-------------------|
 -----------------------------------  - - - - - -    - - -

----------------------------------------------------------------------------|
----------------------------------------------------------------------------|
----------------------------------------------------------------------------|
----------------------------------------------------------------------------|
--2-2-2--5-5-5--4-4-4--4-4-4--2-2-2--4-4-4--5-5-5--4-4-4----2-2-2--5-5-5--4-|
--2-2-2--2-2-2--2-2-2--2-2-2--2-2-2--2-2-2--2-2-2--2-2-2----2-2-2--2-2-2--2-|
PM----  -----  -----  -----  -----  -----  -----  -----    -----  -----  ---

----------------------------------------------------------------------------|
----------------------------------------------------------------------------|
----------------------------------6-----------------------------------------|
----------------------------------4-----------------------------------------|
-4-4--4-4-4--2-2-2--4-4-4--5-5-5--4-----------------------------------------|
-2-2--2-2-2--2-2-2--2-2-2--2-2-2--------------------------------------------|
 ---  -----  -----  -----  -----


Guitar I
----------------------------------------------------------------------------|
----------------------------------------------------------------------------|
----------------------------------------------------------------------------|
--------------------------------------------4/5--4--------------------------|
-2-2-2-2-2-2-2-2-2-2-2-2-2-2-2-2-2-2--0--2--x-x--x--------------------------|
-0-0-0-0-0-0-0-0-0-0-0-0-0-0-0-0-0-0--0--2--2/3--2--------------------------|
 - - - - - - - - - - - - - - - - - -  -  -

Guitar II
--------------------------------------------------0--------------------------|
--------------------------------------------------0--------------------------|
--------------------------------------------------0--------------------------|
--------------------------------------------4/5------------------------------|
-2-2-2-2-2-2-2-2-2-2-2-2-2-2-2-2-2-2--0--2--x-x------------------------------|
-0-0-0-0-0-0-0-0-0-0-0-0-0-0-0-0-0-0--0--2--2/3------------------------------|
 -----------------------------------  -  ------------------------------------|
Tap to rate this tab
# A B C D E F G H I J K L M N O P Q R S T U V W X Y Z