Song name
# A B C D E F G H I J K L M N O P Q R S T U V W X Y Z

Gold Motel - Stealing The Moonlight chords

Highlighted       Show chord diagrams
Band : Gold Motel
Song : Stealing the Moonlight
Album : Summer House
Tabbed by: Rowell
Tuning: Standard

Intro/riff
e|-----------------------------------------------5-----------------------------|
B|-----12---10-----12---10-/-14-10-9----9\7--5h7--7p5--------------------------|
G|-----------------------------------------------------------------------------|
D|-----12---11-----12---11-/-14-11-9-(9)-\7------------------------------------|
A|--0-----0-----0-----0----0---------------------------------------------------|
E|-----------------------------------------------------------------------------|

e|-----------------------------------------------------------------------------|
B|-----12---10-----12---10-/-14-10-9----9\7------------------------------------|
G|-----------------------------------------------------------------------------|
D|-----12---11-----12---11-/-14-11-9-(9)-\7------------------------------------|
A|--0-----0-----0-----0----0---------------------------------------------------|
E|-----------------------------------------------------------------------------|


Chords repeat the same way throughout the whole song. Not completely sure if the lyrics 
100% correct.

Verse (I)
A    Dbm       F#m
Well I've been cheated...


Verse (var II)
Bm          Dbm   D
Day when you come around
                     Dbm  A
I should know what I was missing
Bm                  Dbm  D
Tow me from the lost and found
                   E    D
Help me get over my bitter nights

Chorus
A
Whoa, why don't we go
E           D
Stealing the moonlight, oh
A                        E     D E
I know this is something good

A Dbm F#m


Bridge
D                     A
The bitter nights are gone
    E
Now that you came along...

D
A E
Tap to rate this tab
 
# A B C D E F G H I J K L M N O P Q R S T U V W X Y Z