Song name
# A B C D E F G H I J K L M N O P Q R S T U V W X Y Z

Gold Motel - Stealing The Moonlight tab

Love this band since I saw them tour with Hellogoodbye, I'll try and figure out the chorus soon


Intro:
E|---------------------------------------------------------------------------|
B|----14----14~--------14----------------------------------------------------|
G|----16----14~--14/16-----16-14---------------------------------------------|
D|-------------------------------16-18-16-14---------------------------------|
A|---------------------------------------------------------------------------|
E|---------------------------------------------------------------------------|

Pre-Chorus:

e|---------------------------------------------------------------------------|
B|---------------------------------------------------------------------------|
G|---------------11---14-----------------------------------------------------|
D|-----7----9----11---14-----------------------------------------------------|
A|-----7----9----9----12-----------------------------------------------------|
E|-----5----7----------------------------------------------------------------|
Tap to rate this tab
 
# A B C D E F G H I J K L M N O P Q R S T U V W X Y Z