Song name
# A B C D E F G H I J K L M N O P Q R S T U V W X Y Z

Gold Motel - Safe In La tab

|----------10-------------|-------------------------|-------------------------|
|-10-1012----10-10-12----|----------------10-------|-------------------------|
|----------------------11-|--11-11-9-7--7-7----11---|--11-11-9-7--11-11-9-7---|
|-------------------------|-------------------------|-------------------------|
|-------------------------|-------------------------|-------------------------|
|-------------------------|-------------------------|-------------------------|


|-------------------------|-------------------------|-------------------------|
|-------------------------|-------------------------|-------------------------|
|-11-11-9-----------------|-------------------------|-------------------------|
|---------9---12-11-------|-------------------------|-------------------------|
|-------------------------|-------------------------|-------------------------|
|-------------------------|-------------------------|-------------------------|

play twice
Tap to rate this tab
 
# A B C D E F G H I J K L M N O P Q R S T U V W X Y Z