Song name
# A B C D E F G H I J K L M N O P Q R S T U V W X Y Z

Golden City - Cars In Space tab

-----------------------------------------------------------------------------
			     Cars in Space, Golden City
-----------------------------------------------------------------------------
Tabbed by: David Emmons
Email:	Daveemmons1@gmail.com

Tuning:	Standard

Intro/Verse: D A F#(or D/F) G

  D     A      B      G       D/F

e|---------------------------------------------------------------------------|
B|-----------------------------3---------------------------------------------|
G|-7---------------------------2---------------------------------------------|
D|-7----7------4-------5-------0---------------------------------------------|
A|-5----7------4-------5-------0---------------------------------------------|
E|------5------2-------3-------2---------------------------------------------|

Chorus (Well be the first car): D G

  D    G

e|---------------------------------------------------------------------------|
B|---------------------------------------------------------------------------|
G|-7-------------------------------------------------------------------------|
D|-7----5--------------------------------------------------------------------|
A|-5----5--------------------------------------------------------------------|
E|------3--------------------------------------------------------------------|


(I just wouldnt feel the same): D B A G   (D-Bag)

   D    B      A       G

e|---------------------------------------------------------------------------|
B|---------------------------------------------------------------------------|
G|-7-------------------------------------------------------------------------|
D|-7----9------7-------5-----------------------------------------------------|
A|-5----9------7-------5-----------------------------------------------------|
E|------7------5-------3-----------------------------------------------------|


End on D

Golden City Official Website:  http://www.myspace.com/therealgoldencity
Tap to rate this tab
 
# A B C D E F G H I J K L M N O P Q R S T U V W X Y Z