Guitaretab - guitar tabs
Song name
# A B C D E F G H I J K L M N O P Q R S T U V W X Y Z

Golden Earring - Twilight Zone tab

Intro
play 6 times      play 2 times    play 2 times
e|---------------|---------------|---------------|
B|---------------|---------------|---------------|
G|---------------|---------------|---------------|
D|--0-2-0--0h2-0-|--0-4-0--0h4-0-|--0-2-0--0h2-0-|
A|2------2-------|4------4-------|2------2-------|
E|---------------|---------------|---------------|

Verse 1

Bm                 
It's two a.m., the fear has gone
A
I'm sittin' here waitin', the gun still warm
G                                        F#
Maybe my connection is tired of takin' chances
               Bm
Yeah there's a storm on the loose, sirens in my head
    Em
I'm wrapped up in silence, all circuits are dead
  Bm                                        A
I cannot decode, my whole life spins into a frenzy

Chorus 

Help I'm...     The place...    My beacon's...  Where am I to go...      
e|---------------|---------------|---------------|---------------|
B|---------------|---------------|---------------|---------------|
G|---------------|---------------|---------------|---------------|
D|----0-0-0-0----|----0-0-0-0----|----0-0-0-0----|----0-0-0-0----|
A|----2-2-2-2----|----4-4-4-4----|----5-5-5-5----|----4-4-4-4----|
E|PS-------------|---------------|---------------|---------------|

Help I'm steppin' into the Twilight Zone

The place is a madhouse, feels like being cloned

My beacon's been moved under moon and star

Where am I to go, now that I've gone too far

Help I'm steppin' into the Twilight Zone

The place is a madhouse, feels like being cloned

My beacon's been moved under moon and star

Where am I to go, now that I've gone too far
              Am          Em
Soon you will come to know, When the bullet hits the bone          
Lead Riff
e|-------3---3---3---3---3------|
B|------------------------------|
G|-----5b--5b--5b--5b--5b-------|
D|------------------------------|
A|------------------------------|
E|------------------------------|
              Am          Em    
Soon you will come to know, When the bullet hits the bone


Verse 2
Bm
I'm falling down a spiral, destination unknown
A
double-crossed messenger, all alone
G                                                          F#
I can't get no connection, can't get through, where are you
             
Well the night weighs heavy on his guilty mind

This far from the borderline

when the hitman comes

He knows damn well he has been cheated

Lead Riff For 2nd Verse
weighs heavy...  this far from... when the hitman... he knows damn well...
e|---------------|----------------|----------------|----------------|
B|---3/55-3/55---|---5/77-5/77----|---7/99-7/99----|---5/77-5/77----|
G|---3/55-3/55---|---5/77-5/77----|---7/99-7/99----|---5/77-5/77----|
D|---------------|----------------|----------------|----------------|
A|---------------|----------------|----------------|----------------|
E|---------------|----------------|----------------|----------------|


Chorus

Help I'm...     The place...    My beacon's...  Where am I to go...      
e|---------------|---------------|---------------|---------------|
B|---------------|---------------|---------------|---------------|
G|---------------|---------------|---------------|---------------|
D|----0-0-0-0----|----0-0-0-0----|----0-0-0-0----|----0-0-0-0----|
A|----2-2-2-2----|----4-4-4-4----|----5-5-5-5----|----4-4-4-4----|
E|PS-------------|---------------|---------------|---------------|

Help I'm steppin' into the Twilight Zone

The place is a madhouse, feels like being cloned

My beacon's been moved under moon and star

Where am I to go, now that I've gone too far

Help I'm steppin' into the Twilight Zone

The place is a madhouse, feels like being cloned

My beacon's been moved under moon and star

Where am I to go, now that I've gone too far
              Am          Em
Soon you will come to know, When the bullet hits the bone          
Lead Riff
e|-------3---3---3---3---3------|
B|------------------------------|
G|-----5b--5b--5b--5b--5b-------|
D|------------------------------|
A|------------------------------|
E|------------------------------|
              Am          Em    
Soon you will come to know, When the bullet hits the bone
[ Tab from: http://www.guitaretab.com/g/golden-earring/119486.html ]
Solo
e|--------------------------------------------------------------------------|
B|--------0--0h3p0----3h5p3p0---3p0--3-0---------0-----------------3-3-0--0-|
G|------2----------2---------------------------2-------2---2-2-2---------2--|
D|--2/4------------------------------------2/4-----2/4---4-------4----------|
A|--------------------------------------------------------------------------|
E|--------------------------------------------------------------------------|

e|-------------5--5--5--5--5--5--5--5-5-5-5-5-5-------------|
B|---0-3-3-3--5b-5b-5b-5b-5b-5b-5b--5-5-5-5-5-5--5-3---3----|
G|-2-------------------------------------------------4------|
D|----------------------------------------------------------|
A|----------------------------------------------------------|
E|----------------------------------------------------------|

e|---------------------10-10--------10-12-12b-10----------------------------|
B|------10-12-12-12-12-------12--12--------------12-10-12-12-12-------------|
G|--/11---------------------------------------------------------------------|
D|--------------------------------------------------------------------------|
A|--------------------------------------------------------------------------|
E|--------------------------------------------------------------------------|

e|------7--7--7--7--7-----7------7----10-10-7----------------------10b------|
B|--00-----------------10---10p7---10---------10--10p7----------------------|
G|-----9b-9b-9b-9b-9b----------------------------------9p7------------------|
D|---------------------------------------------------------9p7--------------|
A|-------------------------------------------------------------9p7----------|
E|--------------------------------------------------------------------------|

e|----------------------------------------------|
B|-----7-9b-9b-9b-9b-9b-9b-9b-10-12-12-10-10-12-|
G|--/9------------------------------------------|
D|----------------------------------------------|
A|----------------------------------------------|
E|----------------------------------------------|

e|----------------------------------------------------------|
B|---13-14-15-15b17-15-13-13h15b17-15-13----13-14-15b17-----|
G|---------------------------------------15-----------------|
D|----------------------------------------------------------|
A|----------------------------------------------------------|
E|----------------------------------------------------------|

e|----------------------------------------------------------|
B|---15-13-15-15b17-15-13----------------13-14-15-15b17-15--|
G|------------------------13-15-13-15-15--------------------|
D|----------------------------------------------------------|
A|----------------------------------------------------------|
E|----------------------------------------------------------|

e|---------------------------------------------------------------|
B|---13-15-15b17-15-13-15b17-13----------------------------------|
G|------------------------------15-13----------13----------------|
D|------------------------------------15-13-15----15-15/\--------|
A|---------------------------------------------------------------|
E|---------------------------------------------------------------|


Chorus

Help I'm...     The place...    My beacon's...  Where am I to go...      
e|---------------|---------------|---------------|---------------|
B|---------------|---------------|---------------|---------------|
G|---------------|---------------|---------------|---------------|
D|----0-0-0-0----|----0-0-0-0----|----0-0-0-0----|----0-0-0-0----|
A|----2-2-2-2----|----4-4-4-4----|----5-5-5-5----|----4-4-4-4----|
E|PS-------------|---------------|---------------|---------------|

Help I'm steppin' into the Twilight Zone

The place is a madhouse, feels like being cloned

My beacon's been moved under moon and star

Where am I to go, now that I've gone too far

Help I'm steppin' into the Twilight Zone

The place is a madhouse, feels like being cloned

My beacon's been moved under moon and star

Where am I to go, now that I've gone too far
              Bm          A
Soon you will come to know, When the bullet hits the bone          
Lead Riff
e|------------------------------|
B|-------3-3h5---------3-3h5----|
G|---5-5-----------5-5----------|
D|------------------------------|
A|------------------------------|
E|------------------------------|
              Bm          A    
Soon you will come to know, When the bullet hits the bone
Lead Riff
e|-----------------------------------|
B|---9b-9b-9b-9b-9b-7-9b-7-----------|
G|-----------------------------------|
D|-----------------------------------|
A|-----------------------------------|
E|-----------------------------------|
When the bullet hits the bone!!

When the bullet hits the bone!!

When the bullet hits the bone!!

When the bullet hits the bone!!
Related for Twilight Zone tab
Twilight Zone chords by Golden Earring