Song name
# A B C D E F G H I J K L M N O P Q R S T U V W X Y Z

Golden Earring - Radar Love tab

This is transcribed to Drop D tuning for those who can't sing in the original key.....
like me! Actually sounds more "today" with this tuning too!

I've put the fills in for the last verse to represent both guitar parts so feel 
free to experiment!

[intro]
E-------------------------------------------|
B-------------------------------------------|
G-------------------------------------------|
D-------2---------------2-5-----------------|
A---2-5----2-5-0----2-5-----5------0-(0)----|
D-------------------------------5-----0-----|

Iíve been driving all night, my handís wet on the wheel

[riff 1]
----------------------|
----------------------|
---/4-2-0-2-2-0-------|
---/5-2-0-2-2-0-------|
----------------------|
----------------------|

Thereís a voice in my head that drives my heel     [riff 1]
Itís my baby calling, said ďI need you hereĒ       [riff 1]
And itís half past four and I'm shifting gear      [riff 1]

----------------------------------------------------|
----------------------------------------------------|
-7--------------------------------------------------|
-7-------------------------7----------------2-------|
-5-------------------------7----------------2-------|
-0-------------------------7----------------2-------|
D                          A                E
When she is lonely and the longing gets too much
--------------------------------------|
--------------------------------------|
-7------------------------------------|
-7-------------------------7----------|
-5-------------------------7----------|
-0-------------------------7----------|
D                          A
She sends cable coming in from above
--------|
--------|
--------|
-9------|
-9------|
-9------|
B
She donít need to phone me at all
-----------------------------------------|
-----------------------------------------|
-----------------------------------------|
-10------5------------0------------2-----|
-10------5------------0------------2-----|
-10------5------------0------------2-----|
C        G            D            E
We got a thing thatís called radar love
--------------------------|
--------------------------|
--------------------------|
-10------5-----------0----|
-10------5-----------0----|
-10------5-----------0----|
C        G           D       (N.C.)
We got a wave in the air.... Radar love




The radio's playing some forgotten song
				[riff 2]
				-----------------------|
				-/12----15-------------|
				-/12----14-----/12-----|
				----14----12---/14-----|
				-----------------------|
				-----------------------|

Brenda Leeís - ďComing on StrongĒ [riff 2]
The road has got me hypnotized
					[ riff 1 up an octave ]
				------------------------------|
				----/12-----------------------|
				----/12-14-12-14-14-12--------|
				--------14-12-14-14-12--------|
				------------------------------|
				------------------------------|
And Iím spinning into a new sunrise   [riff 1]

When I get lonely and Iím sure Iíve had enough
She sends her comfort coming in from above
We donít need a letter at all
We got a thing thatís called radar love
Weíve got a line in the sky...

[Drum Solo]

----------------------------------------------------|
----------------------------------------------------|
----------------------------------------------------|
----------------------------------------------------|
------1-0------0----------------1-0------0----------|
--2-5------2-5----2--------2-5------2-5----2--------|

--------------------------------------------------------------|
--------------------------------------------------------------|
--------------------------------------------------------------|
--------------------------------------------------------------|
----2---5-4--------2-4-------------2---5-4-------2-4----------|
--5-------------5------5--------5-------------5------5--------|

------------------------------------------------------|
------------------------------------------------------|
------------------------------------------------------|
----------------0-1-2---------------------------------|
------1-0-1-2---------0--------1-0-1-2----0-2---------|
--2-5---------------------2-5-----------5------0------|





No more speed I'm almost there
                       --------------------------------------------------|
                       --------------------------------------------------|
                       --0-2-0---14b16--14b16--14b16---12b14---9---------|
                       --------------------------------------------------|
                       --------------------------------------------------|
                       --------------------------------------------------|

Gotta keep cool now gotta take care
                       --------------------------------------------------|
                       --------------------------------------------------|
                       ---------0-----14h16------12b14----9--------------|
                       ---0-1-2------------------------------------------|
                       --------------------------------------------------|
                       --------------------------------------------------|

Last car to pass, here I go
                       --------12-12---12-12-----------------------------|
                       --------12-12---12-12-----------------------------|
                       --------12-12---12-12-----------------------------|
                       -12h14--------------------------------------------|
                       --------------------------------------------------|
                       --------------------------------------------------|

And the line of cars goes down real slow
                       ------12------------------------------------------|
                       -----12-------------------------------------------|
                       ---------14b16--14b16-----------------------------|
                       ---14-----------------14--------------------------|
                       --------------------------------------------------|
                       --------------------------------------------------|

And the radio plays that forgotten song
                       --------------------------------------------------|
                       --------------------------------------------------|
                       -------12-14-12-14b16b16-12--------9-12--12-9-----|
                       --12-14-----------------------9-12------------9---|
                       --------------------------------------------------|
                       --------------------------------------------------|

Brenda Lee's coming on strong
                       --------------------------------------------------|
                       ----------------------12\-------------------------|
                       ---14b16r14p12--14b16----------14b16---12---------|
                       --------------------------------------------------|
                       --------------------------------------------------|
                       --------------------------------------------------|

And the newsman sang his same song
                       ---------------------------15----------------------|
                       ------------------------------12-------------------|
                       -------0--------------------------14---12/14-------|
                       ---0-2--0--(let ring)-------------------------14---|
                       ---------------------------------------------------|
                       ---------------------------------------------------|

Oh, one more radar lover gone....
                       ------15b17b17b17-15-12---------------------------|
                       ---12---------------------------------------------|
                       --------------------------------------------------|
                       --------------------------------------------------|
                       --------------------------------------------------|
                       --------------------------------------------------|


When I get lonely and I'm sure I've had enough
She sends her comfort coming in from above
We don't need no letter at all
We got a thing thatís called radar love
We got a line in the sky
We got a thing thatís called radar love
We got a thing thatís called radar love


crescendo on Em to end.
----------------|
----------------|
----------------|
----2-----------|
----2-----------|
----2-----------|


PS - This is the first time I've submitted a tab so please be generous with your
ratings! Haha..... have fun!!
Tap to rate this tab
# A B C D E F G H I J K L M N O P Q R S T U V W X Y Z