Song name
# A B C D E F G H I J K L M N O P Q R S T U V W X Y Z

Golden Earring - Going To The Run chords

Highlighted       Show chord diagrams
Going to the run  golden earing

Intro  Em C  G  2 x

E-|-------------0--------0-----------0--------0----------3------3--------3----|
B-|-------------0-----------0--------1-----------1-------0--------0------0----|
G-|-------------0-----0--------0-----0-----0--------0----0----0-----0----0----|
D-|-------------2--2--------------0--2--2--------------0-0--0---------0--0----|
A-|-------2--5--2--------------------3-------------------x--------------------|
E-|-3--5--------0--------------------0-------------------3--------------------|


                    Em             C                G
 I could bet on new years eve he call me up at night
                          Em          C            D
 From the other side of the world Ed was always there allright
               Am              G                D           Am
 Ed's got the looks of a moviestar Eds got the smile of a prince
       D          G            C                  D
 He ride a bike instead of a car I wanna be his friend
                    Em              C      G
 Dancing in the living room with a lady so nice
                          Em         C            D
 Like the child with the wisdom tooth He's just a friend of mine
                  Am             G              D            Am
 Ed's got the rings and the collars Eds got the wind in his hair
     D                     G       C                     D
 He goes a riding with the brothers he got a fist in the air

REF:
                 Em   C    D
 Going to the run the run angel
                 C   B7    Em
 Going to the run the run angel
        C                   D
 Well, heaven and hell came together that night
 C                  D
 Only for you that time
                 Am  D        G
 Going to the run forever angel

 Solo slide

e---------------------------------------------------------------------------|
b-------------------------------------------------------------------9-s-12--|
g--4-s-5-s-7---7-s-9----9--9-s-7---------4-s-5-s-7---7-s-9----9--9----------|
d---------------------------------------------------------------------------|
a---------------------------------------------------------------------------|
e---------------------------------------------------------------------------|



2:
                     Em     C                G
 On summer at the festival holding on real tight
                      Em     C            D
 On the back of a harley you took me for a ride in the sky
             Am          G                   D          Am
 Ed's got the looks of a winner Ed's got the smile of a prince
      D          G              C                D
 He ride a bike instead of a car I always be his friend
              Em      C    D
 Going to the run the run angel
              C      B7    Em
 Going to the run the run angel
         C               D
 There's rich star that shines so bright
        C           D
 Like a fire in the night
               Am  D      G
 Going to the run forever angel
              Em      C    G
 Going to the run the run angel
                   C        B7   D
 Forever going to the run the run angel
       C                         D
 Well, heaven and hell came together that night
  C                 D
 Only for you this time
              Am  C        G
 Going to the run forever angel

Einde

By heuckeroth uut daam
Tap to rate this tab
# A B C D E F G H I J K L M N O P Q R S T U V W X Y Z