Song name
# A B C D E F G H I J K L M N O P Q R S T U V W X Y Z

Golden State - All Roads Lead Home chords

Highlighted       Show chord diagrams
------------------------------------------------------------------------
			 All Roads Lead Home - Golden State
------------------------------------------------------------------------
Tabbed by:deHufter
Email:kurtkill@hotmail.com

Tuning:standard

Chord used:
    G#m  E    B    F#
e|--4----0----2----2-------------------------------------------------------------|
B|--4----0----4----2-------------------------------------------------------------|
G|--4----1----4----3-------------------------------------------------------------|
D|--6----2----4----4-------------------------------------------------------------|
A|--6----2----2----4-------------------------------------------------------------|
E|--4----0---------2-------------------------------------------------------------|

(F#)      G#m
A million tears 

          E
A million codes 

          B
..........1:15 

          F#
No way to go 


From 'And faith Again' it's only B and E, listen for the rhythm.

HAVE FUN!
Tap to rate this tab
 
# A B C D E F G H I J K L M N O P Q R S T U V W X Y Z