Song name
# A B C D E F G H I J K L M N O P Q R S T U V W X Y Z

Golden State - Save Me tab

-----------------------------------------------------------------------------
			    Golden State ft. Tyler Blackburn - Save Me
-----------------------------------------------------------------------------
Tabbed by: Billy Agures
Email: billythekiddd6@yahoo.com

Tuning: Standard


INTRO/VERSE: (Piano, but here's the notes for guitar - continue through the verse)
e|---------------------------------------------------------------|
B|---------------------------------------------------------------|
G|-8~------------------------------------------------------------|
D|-8~---6~---10~---6~--------------------------------------------|
A|-6~---6~---10~---6~--------------------------------------------|
E|------4~---8~----4~--------------------------------------------|




INTRO/VERSE: (Guitar - come in after piano completes a measure alone)
e|---------------------------------------------------------------|
B|---------------------------------------------------------------|
G|-88888888------------------------------------------------------|
D|-88888888-66666666--1010101010101010---66666666----------------|
A|-66666666-66666666--1010101010101010---66666666----------------|
E|----------44444444--8-8-8-8-8-8-8-8----44444444----------------|
PALM MUTE whole thing, fade out of palm mutes during very last bar before chorus



During the last measure before the chorus there's a guitar playing around with this
e|---------------------------------------------------------------|
B|---------------------------------------------------------------|
G|-8-8-8-8-8-8-8-8-8-7-8-7-8-7-8-7-8-7-8-------------------------|
D|---------------------------------------------------------------|
A|---------------------------------------------------------------|
E|---------------------------------------------------------------|




CHROUS:
e|---------------------------------------------------------------|
B|---------------------------------------------------------------|
G|-88888888------------------------------------------------------|
D|-88888888-88888888--1010101010101010---66666666----------------|
A|-66666666-88888888--1010101010101010---66666666----------------|
E|----------66666666--8-8-8-8-8-8-8-8----44444444----------------| x4
End on the starting chord, the D sharp, and leave it ringing for a little


There's also bells in the chorus that you can play on guitar or a keyboard with a cool 
setting by just playing the same notes as the chorus ( D#   A#   C   G#  then  D#   A#   
C   G# A# D# ), or on actual bells ha


VERSE II:


Just bass and this with some cool effects for the first two measures:

e|---------------------------------------------------------------|
B|----------------11-11~-----------------6-6-4-6-4---------------|
G|-8-7-8-7-8-7-8----------8-7-8-7-8-7-8--------------------------|
D|---------------------------------------------------------------|
A|---------------------------------------------------------------|
E|---------------------------------------------------------------|


Last measure bring this back palm muted:

e|---------------------------------------------------------------|
B|---------------------------------------------------------------|
G|-88888888------------------------------------------------------|
D|-88888888-66666666--1010101010101010---66666666----------------|
A|-66666666-66666666--1010101010101010---66666666----------------|
E|----------44444444--8-8-8-8-8-8-8-8----44444444----------------|

As well as this, play with the dynamics on the last chords go soft to hard

e|---------------------------------------------------------------|
B|---------------------------------------------------------------|
G|-8-8-8-8-8-8-8-8-8-7-8-7-8-7-8-7-8-7-8-8-8-8-8-8-8-------------|
D|---------------------------------------8-8-8-8-8-8-------------|
A|---------------------------------------6-6-6-6-6-6-------------|
E|---------------------------------------------------------------|


back to CHORUS, same as last time, then to


BRIDGE:

These chords

e|------------------------------------------------------------------|
B|------------------------------------------------------------------|
G|------------------------------------------------------------------|
D|-8~----6~-----8~-----6~-------------------------------------------|
A|-8~----6~-----8~-----6~-------------------------------------------|
E|-6~----4~-----6~-----4~-------------------------------------------|


This with a little delay effect a bunch of times, end on an 11

e|-15-15-15-13-13-13-11-11---------------------------------------|
B|---------------------------------------------------------------|
G|---------------------------------------------------------------|
D|---------------------------------------------------------------|
A|---------------------------------------------------------------|
E|---------------------------------------------------------------|



Some orchestra work, then this solo: (play CHORUS chord progression under it)

e|----------------------------4-----------------------------------------------|
B|------11-8--------8-11-8-8-------8-4---------------8-11--11-11-11-111111----|
G|-3/8-------10--7h8------------7h8-----3-3h5b-3--7h8-------------------------|
D|----------------------------------------------------------------------------|
A|----------------------------------------------------------------------------|
E|----------------------------------------------------------------------------|




Then a little break, bring back the chorus and you're set! It's good stuff. Enjoy!
Tap to rate this tab
# A B C D E F G H I J K L M N O P Q R S T U V W X Y Z