Song name
# A B C D E F G H I J K L M N O P Q R S T U V W X Y Z

Goldfinger - Answers tab

Goldfinger - Answers (Intro)

e|---------------------------|		
B|---------------------------|		
G|---------3-2-------------0-|		
D|--0--3-0------0-----0--3---|		
A|----------------1-0--------|		
E|---------------------------|		 

e|------------------------------------------|	
B|------------------------------------------|	
G|---------2-0-----------------2-0-----3-2--|	
D|--0--2-3-----3-2-0-2--0--2-3-----3-2------|	
A|------------------------------------------|
E|------------------------------------------|
Tap to rate this tab
# A B C D E F G H I J K L M N O P Q R S T U V W X Y Z