Song name
# A B C D E F G H I J K L M N O P Q R S T U V W X Y Z

Goldfinger - Walk Away tab

Help us improve GuitareTab! Take a short survey!
Standard tuning


Intro
-------------------------|
-----3-----3-----3-----3-|
---2-----2-----2-----2---|
-0-----------------------|
-------0-----------------|
-------------3-----3-----|

Verse
----------------------------|
----------------------------|
-77777777-22222222----------|
-77777777-22222222-77777777-|
-55555555-00000000-77777777-|
-------------------55555555-|

Pre Chorus
-------------------------------------|
-------------------------------------|
-99999999----------------------------|
-99999999-99999999-77777777-99999999-|
-77777777-99999999-77777777-99999999-|
----------77777777-55555555-77777777-|
what if I do nothing…

Chorus
-------------------------------------|
-------------------------------------|
-99999999----------77777777----------|
-99999999-99999999-77777777-77777777-|
-77777777-99999999-55555555-77777777-|
----------77777777----------55555555-|
walk away, I could never…
Related for Walk Away tab