Song name
# A B C D E F G H I J K L M N O P Q R S T U V W X Y Z

Goldfinger - Faith tab

Chord progression for the verse and chorus is:

         A        C#m      F#m          E
e--------5---------4--------2-----------0-|
b--------5---------5--------2-----------0-|
g--------6---------6--------2-----------1-|
d--------7---------6--------4-----------2-|
a--------7---------4--------4-----------2-|
E--------5---------4--------2-----------0-|

Just listen to the song for the strumming pattern

At the end of each chorus they play one slow D and C#m chord

e-----------------5-----------4---|
b---------------7-----------5-----|
g-------------7-----------6-------|
d-----------7-----------6---------|
a---------5-----------4-----------|
E---------------------------------|

And thats it! This is my first ever tab so hope its accurate.
Tap to rate this tab
# A B C D E F G H I J K L M N O P Q R S T U V W X Y Z