Song name
# A B C D E F G H I J K L M N O P Q R S T U V W X Y Z

Goldfinger - One More Time tab

The opening song from Goldfinger's new album: Hello Destiny.

The longer solo around 2 mins in isnt tabbed but the rest is straight forward enough.

The main riff is played most of the way through either palm muted or normally

Its an awesome song.
enjoy!

Main Riff
e-----------------------------------------|
b-----------------------------------------|
g------9-9--------------------    repeat--| x5
d-7-7--9-9-9-(9)-9-9-9-9-9-9-9------------|
a-7-7--7-7-9-(9)-9-9-9-9-9-9-9------------|
E-5-5------7-(7)-7-7-7-7-7-7-7------------|

Bridge (step to the left, step to the right...)
e---------------------------------------------------------|
b---------------------------------------------------------|
g---------------------------------------------------------|
d-6-6-6-6--x-x-x--6-6-6-6--x-x-x--7-7-7-7---6/7--7-7--7/9-|
a-6-6-6-6--x-x-x--6-6-6-6--x-x-x--7-7-7-7---6/7--7-7--7/9-|
E-4-4-4-4--x-x-x--4-4-4-4--x-x-x--5-5-5-5---4/5--5-5--5/7-|

Bridge cont'd                      (...im out of my mind)
e--------------------------------------------------------|
b--------------------------------------------------------|
g--------------------------------------------------------|
d-6-6-6-6--x-x-x--6-6-6-6--x-x-x---4---------------------|
a-6-6-6-6--x-x-x--6-6-6-6--x-x-x---4<(x15)---------------|
E-4-4-4-4--x-x-x--4-4-4-4--x-x-x---2---------------------|

Chorus (I can feel it coming one more time)
e-----------------------------|
b-----------------------------|
g-----------------------------|
d-7-7--11-11-9-9-9-9-9-9-9-9--|
a-7-7--11-11-9-9-9-9-9-9-9-9--|
E-5-5--9--9--7-7-7-7-7-7-7-7--|

(like the air i breathe in all my life)
e-----------------------------|
b-----------------------------|
g------9-9--------------------|
d-7-7--9-9-9-9-9-9-9-9-9-9-9--|
a-7-7--7-7-9-9-9-9-9-9-9-9-9--|
E-5-5------7-7-7-7-7-7-7-7-7--|

(i wanna give you just a piece of my mind)
e-----------------------------|
b-----------------------------|
g-----------------------------|
d-7-7--11-11-9-9-9-9-9-9-9-9--|
a-7-7--11-11-9-9-9-9-9-9-9-9--|
E-5-5--9--9--7-7-7-7-7-7-7-7--|

(its rising to the front of the line)
e-----------------------------|
b-----------------------------|
g------9-9--------------------|
d-7-7--9-9-9-9-9-9-9-9-9-9-9--|
a-7-7--7-7-9-9-9-9-9-9-9-9-9--|
E-5-5------7-7-7-7-7-7-7-7-7--|


Solo 1 /Bridge
e-----------------------7-7-7-7-------5--4-4--7----|(7)
b-----------------------7-7-7-7-------5--5-5--7----|(7)
g-------------------------------9-8-6--------------|
d--------------------------------------------------|
a-9-9-9-9-76---7-6-7-6-----------------------------|
E-----------9-5------------------------------------|

Main Riff x5 (palm muted)
Bridge
Chorus
(not sure about this bit)
e---------------------------------|
b---------------------------------|
g-------------------------9-9-9---| repeat
d-6-6-6-6/9-9-9-9/7-7-7-7-9-9-9-9-|
a-6-6-6-6/9-9-9-9/7-7-7-7-7-7-7-9-|
E-4-4-4-4/7-7-7-7/5-5-5-5-------7-|

this is the longer solo, i cant get this yet but play the main riff underneath and then 
be in for the rest of the song.

cheers
Jaff
Tap to rate this tab
 
# A B C D E F G H I J K L M N O P Q R S T U V W X Y Z