Guitaretab - guitar tabs
Song name
# A B C D E F G H I J K L M N O P Q R S T U V W X Y Z

Goldfinger - I Want tab

There is no good tablature for this song... since now! 'cause I made one =D
Hope you'll enjoy it

Artist: Goldfinger
Title : I want

Tabbed by Robin Schertzinger (r.schertzinger@gmx.net)

Drums introducing then...

E----------------|
B----------------|
G--7/---2--------|
D--7/---2--------|
A----------------|
E----------------|


Verse


E---------------------------------------------------------------------------|
B---------------------------------------------------------------------------|
G--------------------------------------6-6-6-6-6-6-6-6----7-7-7-7-7-7-7-7---|
D--4-4-4-4-4-4-4-----5-5-5-5-5-5-5-5---6-6-6-6-6-6-6-6----7-7-7-7-7-7-7-7---|
A--4-4-4-4-4-4-4-----5-5-5-5-5-5-5-5---4-4-4-4-4-4-4-4----5-5-5-5-5-5-5-5---|
E--2-2-2-2-2-2-2-----3-3-3-3-3-3-3-3----------------------------------------|
   * *   * * *       * * *   * * *     * * *   * * *      * * *   * * *
   Don't want to     spend my time,    wishing you were      here


E---------------------------------------------------------------------------|
B---------------------------------------------------------------------------|
G-------------------------------------------------------------7/---2--------|
D--4-4-4-4-4-4-4-----5-5-5-5-5-5-5-5----------7-7-7-7-7-7-----7/---2--------|
A--4-4-4-4-4-4-4-----5-5-5-5-5-5-5-5----------7-7-7-7-7-7-------------------|
E--2-2-2-2-2-2-2-----3-3-3-3-3-3-3-3----------5-5-5-5-5-5-------------------|
   * *   * * *       * * *   * * *      
   Don't want to     spend my time     alone


E---------------------------------------------------------------------------|
B---------------------------------------------------------------------------|
G----------------------------------------6-6-6-6-6-6-6-6----7-7-7-7-7-7-7-7-|
D--4-4-4-4-4-4-4-----5-5-5-5-5-5-5-5-----6-6-6-6-6-6-6-6----7-7-7-7-7-7-7-7-|
A--4-4-4-4-4-4-4-----5-5-5-5-5-5-5-5-----4-4-4-4-4-4-4-4----5-5-5-5-5-5-5-5-|
E--2-2-2-2-2-2-2-----3-3-3-3-3-3-3-3----------------------------------------|
   * *   * * *       * * *   * * *       * * *   * * *      * * *   * * *
   Don't want to     waste my life,      dwelling on the past


E---------------------------------------------------------------------------|
B---------------------------------------------------------------------------|
G---------------------------------------------------------------------------|
D--4-4-4-4-4-4-4-----5-5-5-5-5-5-5-5----7-7-7-7-7-7----11/--9---------------|
A--4-4-4-4-4-4-4-----5-5-5-5-5-5-5-5----7-7-7-7-7-7-----9/--7---------------|
E--2-2-2-2-2-2-2-----3-3-3-3-3-3-3-3----5-5-5-5-5-5-------------------------|
   * *   * * *       * * *   * * *      
   Don't want to lock myself at home


Chorus

E---------------------------------------------------------------------------|
B---------------------------------------------------------------------------|
G---------------------------------------------------------------------------|
D-----77--------------------------------------------------------------------|
A-----55---------------77---------------------------------------------------|
E----------------------55---------------------------------------------------|
        'Cause I want,    I need

E---------------------------------------------------------------------------|
B---------------------------------------------------------------------------|
G---------------------------------------------------------------------------|
D----------------------------------7-7-7-7-7--------------------------------|
A---4--4--4--4--4--5--5--5--5--5---5-5-5-5-5--7-7-7-7-7--44/-55/-77/-87-----|
E---2--2--2--2--2--3--3--3--3--3--------------5-5-5-5-5--22/-33/-55/-65-----|
    nothing less than you          I want nothing else   at all


E---------------------------------------------------------------------------|
B---------------------------------------------------------------------------|
G---------------------------------------------------------------------------|
D-----77--------------------------------------------------------------------|
A-----55---------------77---------------------------------------------------|
E----------------------55---------------------------------------------------|
        'Cause I want,    I need

E---------------------------------------------------------------------------|
B---------------------------------------------------------------------------|
G---------------------------------------------------------------------------|
D--11-11-11-11-11--12-12-12-12-12----7-7-7-7-7------------------------------|
A---9--9--9--9--9--10-10-10-10-10----5-5-5-5-5--7-7-7-7-7--44/-55/-77/-87---|
E-----------------------------------------------5-5-5-5-5--22/-33/-55/-65---|
      nothing less than you          I want nothing else     at all

Verse 2


E---------------------------------------------------------------------------|
B---------------------------------------------------------------------------|
G--------------------------------------6-6-6-6-6-6-6-6----7-7-7-7-7-7-7-7---|
D--4-4-4-4-4-4-4-----5-5-5-5-5-5-5-5---6-6-6-6-6-6-6-6----7-7-7-7-7-7-7-7---|
A--4-4-4-4-4-4-4-----5-5-5-5-5-5-5-5---4-4-4-4-4-4-4-4----5-5-5-5-5-5-5-5---|
E--2-2-2-2-2-2-2-----3-3-3-3-3-3-3-3----------------------------------------|
   * *   * * *       * * *   * * *     * * *   * * *      * * *   * * *
   Don't want         to make excuses              Explaining it away


E---------------------------------------------------------------------------|
B---------------------------------------------------------------------------|
G-------------------------------------------------------------7/---2--------|
D--4-4-4-4-4-4-4-----5-5-5-5-5-5-5-5----------7-7-7-7-7-7-----7/---2--------|
A--4-4-4-4-4-4-4-----5-5-5-5-5-5-5-5----------7-7-7-7-7-7-------------------|
E--2-2-2-2-2-2-2-----3-3-3-3-3-3-3-3----------5-5-5-5-5-5-------------------|
   * *   * * *       * * *   * * *      
   Just want to spend my time            with you 

E---------------------------------------------------------------------------|
B---------------------------------------------------------------------------|
G--------------------------------------6-6-6-6-6-6-6-6----7-7-7-7-7-7-7-7---|
D--4-4-4-4-4-4-4-----5-5-5-5-5-5-5-5---6-6-6-6-6-6-6-6----7-7-7-7-7-7-7-7---|
A--4-4-4-4-4-4-4-----5-5-5-5-5-5-5-5---4-4-4-4-4-4-4-4----5-5-5-5-5-5-5-5---|
E--2-2-2-2-2-2-2-----3-3-3-3-3-3-3-3----------------------------------------|
   * *   * * *       * * *   * * *     * * *   * * *      * * *   * * *
   Don't want to walk on ice            Don't want to live on edge


E---------------------------------------------------------------------------|
B---------------------------------------------------------------------------|
G---------------------------------------------------------------------------|
D--4-4-4-4-4-4-4-----5-5-5-5-5-5-5-5----7-7-7-7-7-7----11/--9---------------|
A--4-4-4-4-4-4-4-----5-5-5-5-5-5-5-5----7-7-7-7-7-7-----9/--7---------------|
E--2-2-2-2-2-2-2-----3-3-3-3-3-3-3-3----5-5-5-5-5-5-------------------------|
   * *   * * *       * * *   * * * 
  'Cause on the edge I'm looking down


Chorus
[ Tab from: http://www.guitaretab.com/g/goldfinger/201576.html ]
E---------------------------------------------------------------------------|
B---------------------------------------------------------------------------|
G---------------------------------------------------------------------------|
D-----77--------------------------------------------------------------------|
A-----55---------------77---------------------------------------------------|
E----------------------55---------------------------------------------------|
        'Cause I want,    I need

E---------------------------------------------------------------------------|
B---------------------------------------------------------------------------|
G---------------------------------------------------------------------------|
D----------------------------------7-7-7-7-7--------------------------------|
A---4--4--4--4--4--5--5--5--5--5---5-5-5-5-5--7-7-7-7-7--44/-55/-77/-87-----|
E---2--2--2--2--2--3--3--3--3--3--------------5-5-5-5-5--22/-33/-55/-65-----|
    nothing less than you          I want nothing else    at all


E---------------------------------------------------------------------------|
B---------------------------------------------------------------------------|
G---------------------------------------------------------------------------|
D-----77--------------------------------------------------------------------|
A-----55---------------77---------------------------------------------------|
E----------------------55---------------------------------------------------|
        'Cause I want,    I need

E---------------------------------------------------------------------------|
B---------------------------------------------------------------------------|
G---------------------------------------------------------------------------|
D--11-11-11-11-11--12-12-12-12-12----7-7-7-7-7------------------------------|
A---9--9--9--9--9--10-10-10-10-10----5-5-5-5-5--7-7-7-7-7----5--7--8--7-----|
E-----------------------------------------------5-5-5-5-5----3--5--6--5-----|
   nothing less than you          I want nothing else     at all

Bridge

E----7---7---7----5---5---5----3---3---3----3---3---3-----------------------|
B-----7---7--------5---5--------3---3--------3---3--------------------------|
G------7---7--------6---6--------4---4--------4---4-------------------------|
D--9------------7------------5------------5---------------------------------|
A---------------------------------------------------------------------------|
E---------------------------------------------------------------------------|

E----7---7---7----5---5---5----3---3---3----3---3---3-----------------------|
B-----7---7--------5---5--------3---3--------3---3--------------------------|
G------7---7--------6---6--------4---4--------4---4-------------------------|
D--9------------7------------5------------5---------------------------------|
A---------------------------------------------------------------------------|
E---------------------------------------------------------------------------|

E----7---7---7----5---5---5----3---3---3----3---3---3-----------------------|
B-----7---7--------5---5--------3---3--------3---3--------------------------|
G------7---7--------6---6--------4---4--------4---4-------------------------|
D--9------------7------------5------------5---------------------------------|
A---------------------------------------------------------------------------|
E---------------------------------------------------------------------------|
   I            want         more

E----7---7---7----5---5---5-------------------------------------------------|
B-----7---7--------5---5----------------------------------------------------|
G------7---7--------6---6-------------7/---2--------------------------------|
D--9------------7---------------------7/---2--------------------------------|
A----------------------------5-12-5-----------------------------------------|
E----------------------------3-10-3-----------------------------------------|
   I            want         more

Verse 3

E---------------------------------------------------------------------------|
B---------------------------------------------------------------------------|
G--------------------------------------6-6-6-6-6-6-6-6----7-7-7-7-7-7-7-7---|
D--4-4-4-4-4-4-4-----5-5-5-5-5-5-5-5---6-6-6-6-6-6-6-6----7-7-7-7-7-7-7-7---|
A--4-4-4-4-4-4-4-----5-5-5-5-5-5-5-5---4-4-4-4-4-4-4-4----5-5-5-5-5-5-5-5---|
E--2-2-2-2-2-2-2-----3-3-3-3-3-3-3-3----------------------------------------|
   * *   * * *       * * *   * * *     * * *   * * *      * * *   * * *
   Don't want to     spend my time,    wishing you were      here


E---------------------------------------------------------------------------|
B---------------------------------------------------------------------------|
G-------------------------------------------------------------11/--9--------|
D--4-4-4-4-4-4-4-----5-5-5-5-5-5-5-5----------7-7-7-7-7-7------9/--7--------|
A--4-4-4-4-4-4-4-----5-5-5-5-5-5-5-5----------7-7-7-7-7-7-------------------|
E--2-2-2-2-2-2-2-----3-3-3-3-3-3-3-3----------5-5-5-5-5-5-------------------|
   * *   * * *       * * *   * * *      
   Don't want to     spend my time     alone

Chorus

E---------------------------------------------------------------------------|
B---------------------------------------------------------------------------|
G---------------------------------------------------------------------------|
D-----77------x-x-x-x-------------------------------------------------------|
A-----55------x-x-x-x--77-x-x-x-x-------------------------------------------|
E----------------------55-x-x-x-x-------------------------------------------|
        'Cause I want,    I need

E---------------------------------------------------------------------------|
B---------------------------------------------------------------------------|
G---------------------------------------------------------------------------|
D----------------------------------7-7-7-7-7--------------------------------|
A---4--4--4--4--4--5--5--5--5--5---5-5-5-5-5--7-7-7-7-7--44/-55/-77/-87-----|
E---2--2--2--2--2--3--3--3--3--3--------------5-5-5-5-5--22/-33/-55/-65-----|
    nothing less than you          I want nothing else    at all


E---------------------------------------------------------------------------|
B---------------------------------------------------------------------------|
G---------------------------------------------------------------------------|
D-----77------x-x-x-x-------------------------------------------------------|
A-----55------x-x-x-x--77-x-x-x-x-------------------------------------------|
E----------------------55-x-x-x-x-------------------------------------------|
        'Cause I want,    I need

E---------------------------------------------------------------------------|
B---------------------------------------------------------------------------|
G---------------------------------------------------------------------------|
D--11-11-11-11-11--12-12-12-12-12----7-7-7-7-7------------------------------|
A---9--9--9--9--9--10-10-10-10-10----5-5-5-5-5--7-7-7-7-7--5-7-8-10-12-14-12|
E-----------------------------------------------5-5-5-5-5--3-5-6-8--10-12-10|
   nothing less than you          I want nothing else  at  all
Related for I Want tab
I Want chords by Goldfinger