Song name
# A B C D E F G H I J K L M N O P Q R S T U V W X Y Z

Goldfinger - 99 Red Balloons tab

------------------------------------------------------------------------------
------------------------------------------------------------------------------
---------------2-2-2--4-4-4---------------------------------------------------
-2-2-2--4-4-4--2-2-2--4-4-4---------------------------------------------------
-2-2-2--4-4-4--0-0-0--2-2-2---------------------------------------------------
-0-0-0--2-2-2-----------------------------------------------------------------
 Clean                                                                        

------------------------------------------------------------------------------
--------------------------------------------------------------------------x2--
------------------------------------2-2-2-2-2-2-2-2--4-4-4-4-4-4-4-4----------
-2-2-2-2-2-2-2-2--4-4-4-4-4-4-4-4---2-2-2-2-2-2-2-2--4-4-4-4-4-4-4-4----------
-2-2-2-2-2-2-2-2--4-4-4-4-4-4-4-4---0-0-0-0-0-0-0-0--2-2-2-2-2-2-2-2----------
-0-0-0-0-0-0-0-0--2-2-2-2-2-2-2-2---------------------------------------------
 Palm Muted                                                                   

------------------------------------------------------------------------------
------------------------------------------------------------------------------
---------------------------2--2--2--2---4--4--4--4-------------------x2-------
-2--2--2--2---4--4--4--4---2--2--2--2---4--4--4--4----------------------------
-2--2--2--2---4--4--4--4---0--0--0--0---2--2--2--2----------------------------
-0--0--0--0---2--2--2--2------------------------------------------------------
                                                                              

------------------------------------------------------------------------------
------------------------------------------------------------------------------
------------------------------------------------------------------------------
-2xx2xx2xx2xx2xx2xx2xx2xx2xx2xx2xx2xx2xx2-------------------------------------
------------------------------------------------------------------------------
------------------------------------------------------------------------------
 w/ wah and light distortion                                                  

------------------------------------------------------------------------------
------------------------------------------------------------------------------
------------------------------------------------------------------------------
--2--2-----2-------------------2--2-----2-------------------------------------
--------4----4-----------------------4----4--2--2--2--4-----------------------
---------------2---4---2---0--------------------------------------------------
                                                                              

------------------------------------------------------------------------------
------------------------------------------------------------------------------
---------------------------------------------------------------------x2-------
--2--2-----2------------------2--2-----2--------------------------------------
--------4----4----------------------4-----4---2xxx-xxx------------------------
----------------2--4--2--0----------------------------------------------------
                                                                              

------------------------------------------------------------------------------
------------------------------------------------------------------------------
---------------------------2-2-2-2-2-2--4-4-4-4-4-4-------------------x2------
-2-2-2-2-2-2--4-4-4-4-4-4--2-2-2-2-2-2--4-4-4-4-4-4---------------------------
-2-2-2-2-2-2--4-4-4-4-4-4--0-0-0-0-0-0--2-2-2-2-2-2---------------------------
-0-0-0-0-0-0--2-2-2-2-2-2-----------------------------------------------------
 Distortion                                                                   

------------------------------------------------------------------------------
------------------------------------------------------------------------------
----------------------------2--2--2--2---4--4--4--4---------------------------
--2--2--2--2---4--4--4--4---2--2--2--2---4--4--4--4---------------------------
--2--2--2--2---4--4--4--4---0--0--0--0---2--2--2--2---------------------------
--0--0--0--0---2--2--2--2-----------------------------------------------------
                                                                              

------------------------------------------------------------------------------
------------------------------------------------------------------------------
--------------------2-2-2-2--4-4-4-4------------------------------------------
--2-2-2-2--4-4-4-4--2-2-2-2--4-4-4-4------------------------------------------
--2-2-2-2--4-4-4-4--0-0-0-0--2-2-2-2------------------------------------------
--0-0-0-0--2-2-2-2------------------------------------------------------------
                                                                              

--2-4-0-4-2-0---4-2-0-0----0---0-2--2-4-0-4-2-0---4-2-0-0-----7-4-2-4---------
--------------2----------2---2------------------2----------2------------------
------------------------------------------------------------------------------
------------------------------------------------------------------------------
------------------------------------------------------------------------------
------------------------------------------------------------------------------
                                                                              

------------------------------------------------------------------------------
--------------------------------------------------------------------------x2--
-----------------------------------2-2-2-2-2-2-2-2--4-4-4-4-4-4-4-4-----------
-2-2-2-2-2-2-2-2--4-4-4-4-4-4-4-4--2-2-2-2-2-2-2-2--4-4-4-4-4-4-4-4-----------
-2-2-2-2-2-2-2-2--4-4-4-4-4-4-4-4--0-0-0-0-0-0-0-0--2-2-2-2-2-2-2-2-----------
-0-0-0-0-0-0-0-0--2-2-2-2-2-2-2-2---------------------------------------------
 Palm Muted/Distortion                                                        

------------------------------------------------------------------------------
------------------------------------------------------------------------------
---------------2x----4x-------------------------------------------------------
-2x-----4x-----2x----4x-------------------------------------------------------
-2x-----4x-----0x----2x-------------------------------------------------------
-0x-----2x--------------------------------------------------------------------
                                                                              

------------------------------------------------------------------------------
------------------------------------------------------------------------------
---------------------------2--2--2--2---4--4--4--4----------------------------
-2--2--2--2---4--4--4--4---2--2--2--2---4--4--4--4----------------------------
-2--2--2--2---4--4--4--4---0--0--0--0---2--2--2--2----------------------------
-0--0--0--0---2--2--2--2------------------------------------------------------
                                                                              

------------------------------------------------------------------------------
------------------------------------------------------------------------------
---------------------------------------------------------------------x2-------
--2--2------2---------2--2-----2----------------------------------------------
--------4------4------------4-----2-------------------------------------------
--------------------------------------2^-4^-2^-0^-----------------------------
                                                                              

------------------------------------------------------------------------------
------------------------------------------------------------------------------
------------------------------------------------------------------------------
-2--2-----2--------------------2--2-------2-----------------------------------
-------4-----4------------------------4------4--2--2--2--4--------------------
-----------------2--4--2--0---------------------------------------------------
                                                                              

------------------------------------------------------------------------------
------------------------------------------------------------------------------
----------------------------------------------------------------------x2------
-2--2-----2-------------------2--2-----2--------------------------------------
-------4-----4----------------------4-----4--2xxx-xxx-------------------------
----------------2--4--2--0----------------------------------------------------
                                                                              

------------------------------------------------------------------------------
------------------------------------------------------------------------------
---------------------------2-2-2-2-2-2--4-4-4-4-4-4-------------------x4------
-2-2-2-2-2-2--4-4-4-4-4-4--2-2-2-2-2-2--4-4-4-4-4-4---------------------------
-2-2-2-2-2-2--4-4-4-4-4-4--0-0-0-0-0-0--2-2-2-2-2-2---------------------------
-0-0-0-0-0-0--2-2-2-2-2-2-----------------------------------------------------
 Distortion                                                                   

--2-4-0-4-2-0---4-2-0-0---0---0-2--2-4-0-4-2-0----4-2-0-0-----7--4--2--4------
--------------2---------2---2------------------2-----------2------------------
------------------------------------------------------------------------------
------------------------------------------------------------------------------
------------------------------------------------------------------------------
------------------------------------------------------------------------------
                                                                              

--0-2-2-2-2-0-0-0-0-2-2-2-2-0-0-0-0-2-2-2-2-0-0-0-0-2-2-2-2-0-0-0-0-----------
------------------------------------------------------------------------------
------------------------------------------------------------------------------
------------------------------------------------------------------------------
------------------------------------------------------------------------------
------------------------------------------------------------------------------
                                                                              

--7-7-4-7-7-4-7-7-4-7-7-4-7-4-7-4-7-4-----------------------------------------
------------------------------------------------------------------------------
------------------------------------------------------------------------------
--------------------------------------------------2---------------------------
---------------------------------------2-2-2-2-4------------------------------
------------------------------------------------------------------------------
                                                                              

------------------------------------------------------------------------------
------------------------------------------------------------------------------
---------------2-2-2--4-4-4-----------------------------------------x4--------
-2-2-2--4-4-4--2-2-2--4-4-4---------------------------------------------------
-2-2-2--4-4-4--0-0-0--2-2-2---------------------------------------------------
-0-0-0--2-2-2-----------------------------------------------------------------
 Clean
Tap to rate this tab
# A B C D E F G H I J K L M N O P Q R S T U V W X Y Z