Song name
# A B C D E F G H I J K L M N O P Q R S T U V W X Y Z

Goldfinger - End Of The Day tab

Goldfinger
Stomping Ground
Track 4 from "Stomping Ground" (1998)
 
acoustic guitar one
e-| --------------------------------------------|
B-| --------------------------------------------|
G-| -7~~~~33~~~~9-9-9-9-5-5-5-5-7-7-7-7-8-8-8-8-|
D-| -7~~~~33~~~~9-9-9-9-5-5-5-5-7-7-7-7-8-8-8-8-|
A-| -5~~~~11~~~~7-7-7-7-3-3-3-3-5-5-5-5-6-6-6-6-|
E-| --------------------------------------------|

  | --------------------------------------------|
  | --------------------------------------------|
  | --------------------------------------------|
  | -12-12-12-12-13-13-13-13--------------------|
  | -10-10-10-10-11-11-11-11--------------------|
  | --------------------------------------------|
    * *  (play palm muted part only when he sings 'at the'
e-| ------------------------------------------------|
B-| ------------------------------------------------|
G-| 7-7--7~~~~33~~~~9-9-9-9-5-5-5-5-7-7-7-7-8-8-8-8-|
D-| 7-7--7~~~~33~~~~9-9-9-9-5-5-5-5-7-7-7-7-8-8-8-8-|
A-| 5-5--5~~~~11~~~~7-7-7-7-3-3-3-3-5-5-5-5-6-6-6-6-|
E-| ------------------------------------------------|
    At the end of the day.......

heavy distortion guitar two
     * * * * * * * * ( comes in when singing starts)
e-| -----------------------|   |
B-| -----------------------| % |
G-| -7-7-7-7-3-3-3-3-------|   |
D-| -7-7-7-7-3-3-3-3-------|   |<---- rEpeat
A-| -5-5-5-5-1-1-1-1-------| % | 
E-| -----------------------|   |

Rob!~!~!~!~! email at roymoose@aol.com
Tap to rate this tab
# A B C D E F G H I J K L M N O P Q R S T U V W X Y Z