Song name
# A B C D E F G H I J K L M N O P Q R S T U V W X Y Z

Goldfinger - Spokesman tab

Band:   Goldfinger
Song:   Spokesman
Album:  Open Your Eyes


Intro:
E------------------------------|
B------------------------------|
G--4---4---4---4---4-----------|
D--4-2-4-2-4-2-4-2-4-----------|
A--2-2-2-2-2-2-2-2-2-----------|
E----0---0---0---0-------------|

Its easier to bar the 2nd fret, A+D string, with your first finger, and add and lift 
3rd and 4th finger to make the 4 powerchord.
                                             4
                                             2
E A D G B E
| | | | | | 1st fret
| 1 1 | | |
| | | | | |
| | 3 4 | |


Verse:
--------------------------------------------------------------|
--------------------------------------------------------------|
-444444444444--------------666666666666--------44-4444--------|
-444444444444-444444444444-666666666666--22-44-44-4444--------|x2
-222222222222-444444444444-444444444444--22-44-22-2222--------|
--------------222222222222---------------00-22----------------|

Pre-Verse:
----------------xxx---------|
----------------xxx---------|
-2-2-2----------xxx---------|
-2-2-2----------xxx---------|
-0-0-0--4-5-7-5-xxx---------|
----------------xxx---------|

Chorus:
---------------------------------------------------------------------------|
---------------------------------------------------------------------------|
-------------------7777-6666-44444444-------------------77777777-----------|
-55555555-77777777-7777-6666-44444444-55555555-77777777-77777777-77777777x2|
-55555555-77777777-5555-4444-22222222-55555555-77777777-55555555-77777777--|
-33333333-55555555--------------------33333333-55555555----------55555555--|


Intro


Verse (palm muted version)
---------------------------------------------------------------|
---------------------------------------------------------------|
-444444444444--------------666666666666-------44-4444----------|
-444444444444-444444444444-666666666666-22-44-44-4444----------|
-222222222222-444444444444-444444444444-22-44-22-2222----------|
--------------222222222222--------------00-22------------------|
 ------------ ----pm------ ------------  -  -  - ----


---------------------------------------------------------------|
---------------------------------------------------------------|
-444444444444--------------666666666666-------44-4444----------|
-444444444444-444444444444-666666666666-22-44-44-4444----------|
-222222222222-444444444444-444444444444-22-44-22-2222----------|
--------------222222222222--------------00-22------------------|
 -- -- -- --  -- -- -- --  graduatlly unpalmute

Pre-verse

Chorus

Intro x8 in the 4th one you do some palm mute thingy

In the 8th on you do something like this
--------------------|
--------------------|
-444-44-444---------|
-444-44-444---------|
-222-22-222---------|
--------------------|

Chorus

On the last chorus the lead guitar does something like this
33333333-55555555-10101010-9999-77777777-33333333-55555555-10101010101010---
33333333-55555555-10101010-9999-77777777-33333333-55555555-10101010101010---
----------------------------------------------------------------------------
----------------------------------------------------------------------------
----------------------------------------------------------------------------
----------------------------------------------------------------------------

-55555555----------|
-55555555----------|
-------------------|
-------------------|
-------------------|
-------------------|

Intro

Enjoy
Tap to rate this tab
# A B C D E F G H I J K L M N O P Q R S T U V W X Y Z