Song name
# A B C D E F G H I J K L M N O P Q R S T U V W X Y Z

Goldfinger - Margaret Ann tab

----------------------------------------------------------------------------
			  "Margaret Ann" - Goldfinger
----------------------------------------------------------------------------
Tabbed by: Kidd Lincoln
Email: kidd_lincoln@yahoo.com

Tuning: Standard Tuning E A D G B E


Intro/Chorus:
Riff: Clean Guitar, Electric

e|----------------------------------------------------------------------|
B|-5------5------5-5-5-6-5-----------5------5-5-5-6-5-------------------|
G|--5h7----5h7------------7-5--7p5----5h7------------7-5--7p5-----------|
D|----------------------------------------------------------------------|
A|----------------------------------------------------------------------|
E|----------------------------------------------------------------------|

First Guitar, Acounstic
e|----------------------------------------------------------------------|
B|----------------------------------------------------------------------|
G|-5--5--5-5-5-5--5-5--5-5-5-5--2--2--2-2-2-----------------------------|
D|-5--5--5-5-5-5--5-5--5-5-5-5--2--2--2-2-2-5--5-5--5-5-5-5-------------|4x
A|-3--3--3-3-3-2--2-2--2-2-2-2--0--0--0-0-0-5--5-5--5-5-5-5-------------|
E|------------------------------------------3--3-3--3-3-3-3-------------|

e|----------------------------------------------------------------------|
B|----------------------------------------------------------------------|
G|----------------------------------------------------------------------|
D|-3--3-3-3--3--3-3-3--5------------------------------------------------|
A|-3--3-3-3--3--3-3-3--5------------------------------------------------|
E|-1--1-1-1--1--1-1-1--3------------------------------------------------|

*Let the last note in the intro ring through
*On last note, entire band joins in

Verse: First Guitar, Acoustic
e|----------------------------------------------------------------------|
B|----------------------------------------------------------------------|
G|-5--5--5--5-5--7--7--7--7-7-------------------------------------------|
D|-5--5--5--5-5--7--7--7--7-7--3--3--3--3-3--5--5--5-5-5-5--------------|
A|-3--3--3--3-3--5--5--5--5-5--3--3--3--3-3--5--5--5-5-5-5--------------|
E|-----------------------------1--1--1--1-1--3--3--3-3-3-3--------------|

e|----------------------------------------------------------------------|
B|----------------------------------------------------------------------|
G|-5--5--5--5-5--7--7--7--7-7----------------5--5--5-5-5-5--------------|
D|-5--5--5--5-5--7--7--7--7-7--3--3--3--3-3--5--5--5-5-5-5--------------|
A|-3--3--3--3-3--5--5--5--5-5--3--3--3--3-3--3--3--3-3-3-3--------------|
E|-----------------------------1--1--1--1-1-----------------------------|

*Played 4x

Second Guitar, Electric
e|----------------------------------------------------------------------|
B|----------------------------------------------------------------------|
G|-*5-*5--5-----*7-*7--7------------------------------------------------|
D|-*5-*5--5-----*7-*7--7-----*3-*3--3-----*5-*5--5----------------------|
A|-*3-*3--3--0--*5-*5--5-----*3-*3--3-----*5-*5--5----------------------|
E|------------------------0--*1-*1--1--0--*3-*3--3----------------------|

e|----------------------------------------------------------------------|
B|----------------------------------------------------------------------|
G|----*5-*5--5-----*7-*7--7-------------------*5-*5--5------------------|
D|----*5-*5--5-----*7-*7--7------*3-*3--3-----*5-*5--5------------------|
A|-0--*3-*3--3--0--*5-*5--5------*3-*3--3--0--*3-*3--3------------------|
E|----------------------------0--*1-*1--1-------------------------------|

*Played in harmony with acoustic guitar 4x
*Third guitar, eletric, joins in after 2x

Last note of the verse:
e|----------------------------------------------------------------------|
B|----------------------------------------------------------------------|
G|-3--------------------------------------------------------------------|
D|-3--------------------------------------------------------------------|
A|-1--------------------------------------------------------------------|
E|----------------------------------------------------------------------|

*Let ring

*Chorus (Intro without guitar riff)

Guitar Solo:
Third Guitar
e|----------------------------------------------------------------------|
B|----------6-6-6-5----------------6-7-6-5-6-5-------5------------------|
G|-5-5-7--7---------5-7---5-5-7--7-------------7-5-7---5----------------|
D|----------------------------------------------------------------------|
A|----------------------------------------------------------------------|
E|----------------------------------------------------------------------|

e|----------------------------------------------------------------------|
B|----------6-6-6-5----------------------------5------------------------|
G|-5-5-7--7---------5-7b8r7---5--7-5-7b9r7-5-7---5----------------------|
D|----------------------------------------------------------------------|
A|----------------------------------------------------------------------|
E|----------------------------------------------------------------------|


Listen to the song to know how to play the intro's guitar riff in harmony with the 
guitar and to know the order of the sections of the song (when the second verse comes in, and 
next chorus, etc etc).

============================================================================
| b  bend string to note indicated
| r  release string to note indicated
| *  palm mute
| /  slide up
| \  slide down
| h  hammer-on
| p  pull-off
| ~  vibrato
| +  harmonic
| x  mute note
============================================================================
Tap to rate this tab
 
# A B C D E F G H I J K L M N O P Q R S T U V W X Y Z