Guitaretab - guitar tabs
Song name
# A B C D E F G H I J K L M N O P Q R S T U V W X Y Z

Goldfinger - Minds Eye tab

Goldfinger : Minds Eye

This is a really cool Goldfinger song, but there was no tab for it on the site,
so tabbed it. In the real song theres 2 guitars but the second one just plays
occasional background noise and doubles the chords.

Intro (Distorted)
e|------5--------------5---5------|
B|----5---5---5------5---5---5----|
G|--------------------------------|
D|--7-------7------7--------------|
A|--------------------------------|
E|--------------------------------|

Verse Chords (Strum each multiple times quickly)
e|--------------------------------|
B|--------------------------------|
G|----9-----9---------------------|
D|-9--9--9--9-7-------------------|
A|-9--7--9--7-7-------------------|
E|-7-----7----5-------------------|
[ Tab from: http://www.guitaretab.com/g/goldfinger/51882.html ]
Chorus Chords (Strum each multiple times quickly)
e|--------------------------------|
B|--------------------------------|
G|--2------7---------9------------|
D|--2---5--7--7---5--9------------|
A|--0---5--5--7---5--7------------|
E|------3-----5---3--0------------|


Solo 
e|-----------------------------------------------------------------|
B|-4-4-4-2-4-5-4-0-----------------4-4-4-2-4-5-4-0-----------------|
G|-----------------------------------------------------------------|
D|-----------------4--7-7-7-4-2-4-------------------4-4-4-4-2-0-2--|
A|-----------------------------------------------------------------|
E|-----------------------------------------------------------------|

BRIDGE:                       (Rake/Harmonic)
e|-------------------------x…-x-|
B|------------------------x--x--|
G|--------2--2-2-2--\\---x--x---|
D|-4-4--2-2--2-2-2--\\----------|
A|-4-4--2-0--0-0-0--\\----------|
E|-2-2--0-----------\\----------|
		    
Post-Bridge Riff
e|---6-0~----|
B|---6-5~----|
G|-----------|
D|-----------|
A|-----------|
E|-----------|
Related for Minds Eye tab
Minds Eye chords by Goldfinger