Song name
# A B C D E F G H I J K L M N O P Q R S T U V W X Y Z

Goldfinger - My Everything tab

Song: My Everything
Artist: Goldfinger
Album: Disconnection Notice

Tabbed by: Steven
Email: shuskey27@hotmail.com

Tuning: EADGBe (Standard)   It's so freakin simple.

Intro:
e|--------------------------------------|----------------------------------|
B|--------------------------------------|----------------------------------|
G|--------------------------------------|----------------------------------|
D|----4-4-4----4-4-4----x-x-x-4-4-4--x4-|-77777777-----44444444------------|
A|----4-4-4----4-4-4----x-x-x-4-4-4-----|-55555555-----22222222------------|
E|----2-0-2----2-0-2----2-2-2-2-0-2-----|----------------------------------|
                        * * * 
 Verse is the same as intro without the scraping harmonics added with the second part.

 Chorus:
e|-------------------------------------------------------------------------|
B|-------------------------------------------------------------------------|
G|---------------------------------------77776666--------------------------|
D|--77777777----77777777----44444444-----77776666--------------------------|
A|--77777777----77777777----44444444-----55554444--------------------------|
E|--55555555----44444444----22222222---------------------------------------|

e|-------------------------------------------------------------------------|
B|-------------------------------------------------------------------------|
G|-------------------------------------------------------------------------|
D|---------2h4----------2h4-----------2h4-----4-2---3x's--4-2-4-2-4-2------|
A|---4-2h4------2-4-2h4------2-4-2h4-------2--2-0---------2-0-2-0-2-0-4444-|
E|---2----------0-2----------0-2-----------0--------------------------2222-|


Play in this order:

Intro
Verse
Chorus
Verse
Chorus
Bridge
Intro
Verse
Chorus
Bridge
Half Intro
End!
 
Hope you like this.  It's the first tab of it on this site. 
Have fun learning this easy, good song. -Steven H.
=============================================================================
Tap to rate this tab
# A B C D E F G H I J K L M N O P Q R S T U V W X Y Z