Guitaretab - guitar tabs
Song name
# A B C D E F G H I J K L M N O P Q R S T U V W X Y Z

Goldfinger - Here In Your Bedroom tab

Here in your Bedroom (by Goldfinger)
Tabbed by: countertiger_x

Tuned: E: B: G: D: A: E: got it?

Intro: here in the intro, you should pick up and down, to make it easier on 
your wrist and to go faster.

e:--------------------------------------------------
b:--------------------------------------------------
g:--------------------------------------------------
d:----------------6--6--7--9-----------------------
a:----7--7--7--7--------------------------6--6--7--6
e:----------------------------7--7--7--7------------

----------------------------------------------------
----------------------------------------------------
---------------------------------------------------- 4x
---------------4--4--5--7---------------------------
---5--5--5--5--------------------------4--4--5--4---
---------------------------5--5--5--5---------------

in the second time they play the intro, a second guitar goes:

e:--------------------------------
b:--------------------------------
g:---6--4--2--4--2slide1----------
d:--------------------------------
a:--------------------------------
e:--------------------------------
they play this right in the middle. Then in the 3rd time they play the intro, 
they start singing.

After the intro, they play some reggae-style bar chords. So they are strumming 
up all the time , but this goes fast.

They play these bar chords: C, G, Bb, and F

so it goes:
         " I wonder what you think....."
e:---8---8---8---8---10--10--10--10--6--6--6--6--8---8---8--
b:---8---8---8---8---12--12--12--12--6--6--6--6--10--10--10-
g:---9---9---9---9---12--12--12--12--7--7--7--7--10--10--10-
d:---10--10--10--10--12--12--12--12--8--8--8--8--10--10--10-
a:---10--10--10--10--10--10--10--10--8--8--8--8--8---8---8--
e:---8---8---8---8---10--10--10--10--6--6--6--6--8---8---8--
          (C)              (G)           (Bb)        (F)
--8---
--10--
--10--
--10--reapeat this whole thing about two times.
--8---
--8---


Then you play this once:
Here there are also four kinds of reggae-style bar chords that you play: Em, F,G, Am
[ Tab from: http://www.guitaretab.com/g/goldfinger/7042.html ]
      "When I wake up tomorrow....
e:--7--7--7--7--8---8---8---8---10--10--10--10--12--12--12-
b:--7--7--7--7--8---8---8---8---12--12--12--12--12--12--12-
g:--7--7--7--7--9---9---9---9---12--12--12--12--12--12--12-
d:--9--9--9--9--10--10--10--10--12--12--12--12--14--14--14-
a:--9--9--9--9--10--10--10--10--10--10--10--10--14--14--14-
e:--7--7--7--7--8---8---8---8---10--10--10--10--12--12--12-
      (Em)           (F)              (G)            (Am)
--12-- 
--12--
--12--  1x 
--14--
--14--
--12--

Then play the first two chords 1x again, (Em, F)

  "When I wake up tomorrow....
e:--7--7--7--7--8---8---8---8---
b:--7--7--7--7--8---8---8---8---
g:--7--7--7--7--9---9---9---9---
d:--9--9--9--9--10--10--10--10--
a:--9--9--9--9--10--10--10--10--
e:--7--7--7--7--8---8---8---8---

After, immediately play this one time, and let it ring...

"Will you have changed, cuz I still feel..."

e:--3--
b:--3--
g:--0-- ( let it ring...............)
d:--0--
a:--X--
e:--3--

(you want to mute the A string so it doesnt make any sound)

Then here come 5ths, these are all fifths.
 "the same.... cuz I still feel the same..."
e:X--X--X--X--X--X--X--X--X--X--X--X--X--X--X--X--X--X--X--X
b:X--X--X--X--X--X--X--X--X--X--X--X--X--X--X--X--X--X--X--X
G:5--5--5--5--5--5--5--5--X--X--X--X--X--X--X--X--3--3--3--3
d:5--5--5--5--5--5--5--5--5--5--5--5--5--5--5--5--3--3--3--3
a:3--3--3--3--3--3--3--3--5--5--5--5--5--5--5--5--1--1--1--1
e:X--X--X--X--X--X--X--X--3--3--3--3--3--3--3--3--X--X--X--X

--X--X--X--X--X--X--X--X--X--X--X--X
--X--X--X--X--X--X--X--X--X--X--X--X
--3--3--3--3--X--X--X--X--X--X--X--X
--3--3--3--3--3--3--3--3--3--3--3--3   repeat 2x
--1--1--1--1--3--3--3--3--3--3--3--3
--X--X--X--X--1--1--1--1--1--1--1--1

Then, the whole thing goes up two frets higher.
 
        " Here in your bedroom..........
e:X--X--X--X--X--X--X--X--X--X--X--X--X--X--X--X--X--X--X--X
B:X--X--X--X--X--X--X--X--X--X--X--X--X--X--X--X--X--X--X--X
g:9--9--9--9--9--9--9--9--X--X--X--X--X--X--X--X--7--7--7--7
d:9--9--9--9--9--9--9--9--9--9--9--9--9--9--9--9--7--7--7--7
a:7--7--7--7--7--7--7--7--9--9--9--9--9--9--9--9--5--5--5--5
e:x--x--x--x--x--x--x--x--7--7--7--7--7--7--7--7--X--X--X--X

--X--X--X--X--X--X--X--X--X--X--X--X
--X--X--X--X--X--X--X--X--X--X--X--X
--7--7--7--7--X--X--X--X--X--X--X--X 
--7--7--7--7--7--7--7--7--7--7--7--7
--5--5--5--5--7--7--7--7--7--7--7--7
--X--X--X--X--5--5--5--5--5--5--5--5

You repeat this two times, then you go back to the first part of the fifths 
and repeat that two times. 

After that, you go back to the bar chords for "When I wake up tomorrow. Thats 
the reggae-style bar chords:

Em, F, G, Am ( you play this one times, and then after you play the first two 
chords and then you hit the next chord: 

e:--3-
b:--3-
g:--0-  and let it ring )
d:--0-
a:--X-
e:--3-

Then it keeps going back to fifths and to the beginning and whatever. 
Just follow the song, I gave you what you really needed to know. K! hope 
you like my tabs so review them!!!

Stephanie
Related for Here In Your Bedroom tab