Guitaretab - guitar tabs
Song name
# A B C D E F G H I J K L M N O P Q R S T U V W X Y Z

Goldfinger - Mable tab

-----------------------------------------------------------------------------
Mable  Goldfinger
-----------------------------------------------------------------------------

Good song by a great band! enjoy and rate!

Intro
e|--------------------------------------------------------|
B|-8-8--10-12--8-8--10-12-8-8--10-12-13--12-10-12-10------|
G|-x-x--x--x---x-x--x--x--x-x--x--x--x---x--x--x--x-------|
D|-5-5--7--9---5-5--7--9--5-5--7--9--10--9--7--9--7-------|
A|--------------------------------------------------------|
E|--------------------------------------------------------|
[ Tab from: http://www.guitaretab.com/g/goldfinger/7044.html ]
Intro and Verse
e|---------------------------------|
B|---------------------------------|
G|---------------555555555---------|
D|-555555-222222-555555555---------|
A|-555555-222222-333333333---------|
E|-333333-000000-------------------|

Pre Chorus
e|-------------------------------|
B|-------------------------------|
G|-7-7-7-7-7-7-55-44-22-4--------|
D|-x-x-x-x-x-x-55-44-22-4--------|
A|-5-5-5-5-5-5-33-22-00-2--------|
E|-------------------------------|

Chorus
e|-----------------------------------|
B|-----------------------------------|
G|----777----444-555555-7777777------|
D|-55-777-22-444-555555-7777777------|
A|-55-555-22-222-333333-5555555------|
E|-33-----00-------------------------|

Intro x2
Verse only play after the bass part
Pre Chorus
Chorus x2
Intro 
Verse x2 (palm muted)
Pre Chorus
Chorus x2
Verse but clean and just picked
Pre chorus (but faster and not as muted)
Chorus x4

E-mail funkeymonkey10@hotmail.com!
===========================================================================
Related for Mable tab