Song name
# A B C D E F G H I J K L M N O P Q R S T U V W X Y Z

Goldfinger - Iron First tab

e-------------------------------------------------------|
B-------------------------------------------------------|
G-------------------------------------------------------|
D-------------------------------------------------------|
A-7-------5-8-7-------8-7-8-7-5-------------------------|
E--7-7\4--------7-5-------------------------------------|


e-------------------------------------------------------|
B-------------------------------------------------------|
G-------------------------------------------------------|
D-------------------------------------------------------|
A-7-------5-8-7-------8-7-8-7-5\8-----------------------|
E--7-7\4--------7-5-------------------------------------|
Tap to rate this tab
# A B C D E F G H I J K L M N O P Q R S T U V W X Y Z