Song name
# A B C D E F G H I J K L M N O P Q R S T U V W X Y Z

Goldfrapp - Drew tab

-----------------------------------------------------------------------------
                        DREW - Goldfrapp
-----------------------------------------------------------------------------
Tabbed by: Callum Henderson

This is the piano/guitar part tabbed just for guitar so I know it's probably not 
going to be 100% accurate. However any comments or suggestions for 
improvements are welcome.


Drop D tuning

Let ring throughout

Intro
  
    E                                E

E|-------0-------0-------0-------0-|-------0-------0-------0-------0-|
B|-----0-------0-------0-------0---|-----0-------0-------0-------0---|
G|---1-------1-------1-------1-----|---1-------1-------1-------1-----|
D|---------2---------------2-------|---------2---------------2-------|
A|-----------------2---------------|-----------------2---------------|
D|-2-------------------------------|-2-------------------------------|

Verse x 2
   
    E                                E

E|-------0-------0-------0-------0-|-------0-------0-------0-------0-|
B|-----0-------0-------0-------0---|-----0-------0-------0-------0---|
G|---1-------1-------1-------1-----|---1-------1-------1-------1-----|
D|---------2---------------2-------|---------2---------------2-------|
A|-----------------2---------------|-----------------2---------------|
D|-2-------------------------------|-2-------------------------------|

    Asus4add2/D                      Asus4add2/D

E|-------0-------0-------0-------0-|-------0-------0-------0-------0-|
B|-----0-------0-------0-------0---|-----0-------0-------0-------0---|
G|---2-------2-------2-------2-----|---2-------2-------2-------2-----|
D|---------0---------------0-------|---------0---------------0-------|
A|-----------------0---------------|-----------------0---------------|
D|-0-------------------------------|-0-------------------------------|

    Am                                Am

E|-------0-------0-------0-------0-|-------0-------0-------0-------0-|
B|-----1-------1-------1-------1---|-----1-------1-------1-------1---|
G|---2-------2-------2-------2-----|---2-------2-------2-------2-----|
D|---------2---------------2-------|---------2---------------2-------|
A|-0---------------3---------------|-0---------------3---------------|
D|---------------------------------|---------------------------------|

   E                                 E

E|-------0-------0-------0-------0-|-------0-------0-------0-------0-|
B|-----0-------0-------0-------0---|-----0-------0-------0-------0---|
G|---1-------1-------3-------3-----|---1-------1-------3-------3-----|
D|---------2---------------2-------|---------2---------------2-------|
A|-----------------2---------------|-----------------2---------------|
D|-2-------------------------------|-2-------------------------------|


Pre chorus

   Em

E|-------0-------0-------0-------0-|-------0-------0-------0-------0-|
B|-----0-------0-------0-------0---|-----0-------0-------0-------0---|
G|---0-------0-------0-------0-----|---0-------0-------0-------0-----|
D|---------2---------------2-------|---------2---------------2-------|
A|-----------------2---------------|-----------------2---------------|
D|-2-------------------------------|-2-------------------------------|

   C/E

E|-------0-------0-------0-------0-|-------0-------0-------0-------0-|
B|-----1-------1-------1-------1---|-----1-------1-------1-------1---|
G|---0-------0-------0-------0-----|---0-------0-------0-------0-----|
D|---------2---------------2-------|---------2---------------2-------|
A|-----------------3---------------|-----------------3---------------|
D|-2-------------------------------|-2-------------------------------|

   D

E|-------2-------2-------2-------2-|-------2-------2-------2-------2-|
B|-----3-------3-------3-------3---|-----3-------3-------3-------3---|
G|---2-------2-------2-------2-----|---2-------2-------2-------2-----|
D|---------0---------------0-------|---------0---------------0-------|
A|-----------------0---------------|-----------------0---------------|
D|-0-------------------------------|-0-------------------------------|

   Em               Esus4             Em               Esus2

E|-------0-------0-------0-------0-|-------0-------0-------0-------0-|
B|-----0-------0-------0-------0---|-----0-------0-------0-------0---|
G|---0-------0-------2-------2-----|---0-------0---------------------|
D|---------2---------------2-------|---------2---------4-------4-----|
A|-----------------2---------------|-----------------2-------2-------|
D|-2-------------------------------|-2-------------------------------|


Chorus x2

   E                                E

E|-------0-------0-------0-------0-|-------0-------0-------0-------0-|
B|-----0-------0-------0-------0---|-----0-------0-------0-------0---|
G|---1-------1-------1-------1-----|---1-------1-------1-------1-----|
D|---------2---------------2-------|---------2---------------2-------|
A|-----------------2---------------|-----------------2---------------|
D|-2-------------------------------|-2-------------------------------|

    Asus4add2/D                      Asus4add2/D

E|-------0-------0-------0-------0-|-------0-------0-------0-------0-|
B|-----0-------0-------0-------0---|-----0-------0-------0-------0---|
G|---2-------2-------2-------2-----|---2-------2-------2-------2-----|
D|---------0---------------0-------|---------0---------------0-------|
A|-----------------0---------------|-----------------0---------------|
D|-0-------------------------------|-0-------------------------------|

    C                                C                D

E|---------------------------------|-----------------------2-------2-|
B|-------1-------1-------1-------1-|-------1-------1-----3-------3---|
G|-----0-------0-------0-------0---|-----0-------0-----2-------2-----|
D|---2-------2-------2-------2-----|---2-------2-----0-------0-------|
A|-3-------3-------3-------3-------|-3-------3-----------------------|
D|---------------------------------|---------------------------------|

   E                                 E

E|-------0-------0-------0-------0-|-------0-------0-------0-------0-|
B|-----0-------0-------0-------0---|-----0-------0-------0-------0---|
G|---1-------1-------3-------3-----|---1-------1-------3-------3-----|
D|---------2---------------2-------|---------2---------------2-------|
A|-----------------2---------------|-----------------2---------------|
D|-2-------------------------------|-2-------------------------------|



Instrumental break 

   Em

E|-------0-------0-------0-------0-|-------0-------0-------0-------0-|
B|-----0-------0-------0-------0---|-----0-------0-------0-------0---|
G|---0-------0-------0-------0-----|---0-------0-------0-------0-----|
D|---------2---------------2-------|---------2---------------2-------|
A|-----------------2---------------|-----------------2---------------|
D|-2-------------------------------|-2-------------------------------|

   C/E

E|-------0-------0-------0-------0-|-------0-------0-------0-------0-|
B|-----1-------1-------1-------1---|-----1-------1-------1-------1---|
G|---0-------0-------0-------0-----|---0-------0-------0-------0-----|
D|---------2---------------2-------|---------2---------------2-------|
A|-----------------3---------------|-----------------3---------------|
D|-2-------------------------------|-2-------------------------------|

   D

E|-------2-------2-------2-------2-|-------2-------2-------2-------2-|
B|-----3-------3-------3-------3---|-----3-------3-------3-------3---|
G|---2-------2-------2-------2-----|---2-------2-------2-------2-----|
D|---------0---------------0-------|---------0---------------0-------|
A|-----------------0---------------|-----------------0---------------|
D|-0-------------------------------|-0-------------------------------|

   G                                 D/F#            B7

E|-------3-------3-------3-------3-|-------2-------2-------2-------2-|
B|-----3-------3-------3-------3---|-----3-------3-------0-------0---|
G|---0-------0-------0-------0-----|---2-------2-------2-------2-----|
D|---------0------0--------0-------|---------0---------------1-------|
A|---------------------------------|-----------------2---------------|
D|-5-------------------------------|-4-------------------------------|

Verse variation
   
    E                                E

E|-------0-------0-------0-------0-|-------0-------0-------0-------0-|
B|-----0-------0-------0-------0---|-----0-------0-------0-------0---|
G|---1-------1-------1-------1-----|---1-------1-------1-------1-----|
D|---------2---------------2-------|---------2---------------2-------|
A|-----------------2---------------|-----------------2---------------|
D|-2-------------------------------|-2-------------------------------|

    Asus4add2/D                      Asus4add2/D

E|-------0-------0-------0-------0-|-------0-------0-------0-------0-|
B|-----0-------0-------0-------0---|-----0-------0-------0-------0---|
G|---2-------2-------2-------2-----|---2-------2-------2-------2-----|
D|---------0---------------0-------|---------0---------------0-------|
A|-----------------0---------------|-----------------0---------------|
D|-0-------------------------------|-0-------------------------------|

    Am                             Am                  D

E|-------0-------0-------0-------0-|-------0-------0-------2-------2-|
B|-----1-------1-------1-------1---|-----1-------1-------3-------3---|
G|---2-------2-------2-------2-----|---2-------2-------2-------2-----|
D|---------2---------------2-------|---------2---------------0-------|
A|-0---------------3---------------|-0-------------------------------|
D|---------------------------------|-----------------0---------------|

   E                                 E

E|-------0-------0-------0-------0-|-------0-------0-------0-------0-|
B|-----0-------0-------0-------0---|-----0-------0-------0-------0---|
G|---1-------1-------3-------3-----|---1-------1-------3-------3-----|
D|---------2---------------2-------|---------2---------------2-------|
A|-----------------2---------------|-----------------2---------------|
D|-2-------------------------------|-2-------------------------------|

Outro

   Em               Esus4             Em               Esus2

E|-------0-------0-------0-------0-|-------0-------0-------0-------0-|
B|-----0-------0-------0-------0---|-----0-------0-------0-------0---|
G|---0-------0-------2-------2-----|---0-------0---------------------|
D|---------2---------------2-------|---------2---------4-------4-----|
A|-----------------2---------------|-----------------2-------2-------|
D|-2-------------------------------|-2-------------------------------|

Song structure
______________

Intro
Verse x2
Pre chorus
Chorus x2 
Pre chorus
Instrumental break
Verse variation
Pre chorus x4
Outro
Tap to rate this tab
 
# A B C D E F G H I J K L M N O P Q R S T U V W X Y Z