Song name
# A B C D E F G H I J K L M N O P Q R S T U V W X Y Z

Goldheart Assembly - So Long St Christopher tab

There was no tabbed version of this on the web
so I've provided a basic structure for it.
The beginning isn't played on guitar,but this
is what I've worked out so that you can play it.
You can just use what's given here to make the song.

Class tune from a quality band. Enjoy.


Intro/Verse:

e|--------|--------|--------|--------|
B|--------|--------|--------|--------|
G|--------|--------|7-7-6-6-|4-4-4-4-|
D|7-7-6-6-|4-4-2-2-|7-7-7-7-|4-4-2-2-|
A|7-7-7-7-|4-4-4-4-|5-5-5-5-|2-2-2-2-|
E|5-5-5-5-|2-2-0-0-|--------|--------|

Pre-Chorus: (Let chords ring)

e|--------|--------|--------|--------|
B|--------|--------|--------|--------|
G|4-------|4-------|7-------|7-------|
D|4-------|4-------|7-------|7-------|
A|2-------|2-------|5-------|5-------|
E|--------|--------|--------|--------|

Chorus: (Strummed)

     A        F#m      Bm       E
e|0-------|2-------|2-------|0-------|
B|2-------|2-------|3-------|0-------|
G|2-------|2-------|4-------|1-------|
D|2-------|4-------|4-------|2-------|
A|0-------|4-------|2-------|2-------|
E|0-------|2-------|2-------|0-------|

Breakdown:

e|--------|--------|--------|--------|
B|--------|--------|--------|--------|
G|----4---|----5---|----4---|----5---|
D|--2---2-|--5---5-|--2---2-|--5---5-|
A|2-------|3-------|2-------|3-------|
E|--------|--------|--------|--------|

e|--------|--------|--------|--------|
B|--------|--------|--------|--------|
G|44444444|55555555|44444444|55555555|
D|22222222|55555555|22222222|55555555|
A|22222222|33333333|22222222|33333333|
E|00000000|33333333|00000000|33333333|


http://www.youtube.com/watch?v=zeRse7-lXM4


Tabbing by Mike Pickering
Tap to rate this tab
 
# A B C D E F G H I J K L M N O P Q R S T U V W X Y Z