Song name
# A B C D E F G H I J K L M N O P Q R S T U V W X Y Z

Goldspot - Rewind tab

capo 4th fret
Intro

e|--------------------------------------------------------------------------|
B|--------------------------------------------------------------------------|
G|-----------0--0-0-0-0-0--------------0--0-0-0-0-0--------------0--0-0-0-0-|
D|5--5-5-5-5-5--5-5-5-5-5-5-5--5-5-5-5-5--5-5-5-5-5-5-5--5-5-5-5-5--5-5-5-5-|
A|5--5-5-5-5-5--5-5-5-5-5-5-5--5-5-5-5-5--5-5-5-5-5-5-5--5-5-5-5-5--5-5-5-5-|
E|3--3-7-7-7-5--5-5-5-5-5-3-3--3-7-7-7-5--5-5-5-5-5-3-3--3-7-7-7-5--5-5-5-5-|

e|------------------------------------------------------|
B|------------------------------------------------------|
G|0--------------0--0-0-0-0-0--------------0--0-0-0--0--|
D|5-5-5--5-5-5-5-5--5-5-5-5-5-5-5--5-5-5-5-5--5-5-5--5--|
A|5-5-5--5-5-5-5-5--5-5-5-5-5-5-5--5-5-5-5-5--5-5-5--5--|
E|5-3-3--3-7-7-7-5--5-5-5-5-5-3-3--3-7-7-7-5--5-7-7--7--|

Chorus

e|----------------------------------------------------------------|
B|----------------------------------------------------------------|
G|5-5-5-5-5-5-5-5-5-5-5-5-5-5-5-5-4-4-4-4-4-4-4-4-4-4-4-4-4-4-4-4-|
D|5-5-5-5-5-5-5-5-5-5-5-5-5-5-5-5-7-7-7-7-7-7-7-7-7-7-7-7-7-7-7-7-|
A|3-3-3-3-3-3-3-3-3-3-3-3-3-3-3-3-3-3-3-3-3-3-3-3-3-3-3-3-3-3-3-3-|
E|----------------------------------------------------------------|

Verse

e|----------------------------------------------------------------------------|
B|----------------------------------------------------------------------------|
G|----------------------------------------------------------------------------|
D|0-0-0-0-0-0-0-0-0-0-0-0-0-0-0-0-0-0-0-0-0-0-0-0-0-0-0-0-5-5-5-5-5-5-5-5-----|
A|5-5-5-5-5-5-5-5-5-5-5-5-5-5-5-5-5-5-5-5-5-5-5-5-5-5-5-5-0-0-0-0-0-0-0-0-----|
E|3-3-3-3-3-3-5-5-5-5-5-5-5-5-3-3-3-3-3-3-5-5-5-5-7-7-7-7-8-8-8-8-8-8-8-8-----|


e|------------------------------------------------|
B|------------------------------------------------|
G|------------------------------------------------|
D|5-5-5-5-5-5-5-5-5-5-5-5-5-5-5-5-5-5-5-5-5-5-5-5-|
A|0-0-0-0-0-0-0-0-0-0-0-0-0-0-0-0-0-0-0-0-0-0-0-0-|
E|8-8-8-8-8-8-8-8-8-8-8-8-8-8-8-8-8-8-8-8-8-8-8-8-|

Interval

e|----------------------------------------------------|
B|----------------------------------------------------|
G|----------------------------------------------------|
D|----------------------------------------------------|
A|----------------------------------------------------|
E|3--5--7--5--3--9--------8--8--8--7---5-5------------|
Tap to rate this tab
# A B C D E F G H I J K L M N O P Q R S T U V W X Y Z