Song name
# A B C D E F G H I J K L M N O P Q R S T U V W X Y Z

Golduck Productions - Going Ape tab

Going Ape.
Another song by Golduck Productions. Also, "The Monkey: Turn up your amp and get out 
middle finger. Tap the guitar strings and you will hear a honk. When recorded it sounds 
a monkey." Enjoy.

Intro
E--1---------------1--1--1----1---123------------|
B----2----------2-------2------------------------|
G------3------3----------------------------------|
D---------4--------------------------------------|
A------------5-----------------------------------|
E------------------------------------------------|

Phill/Fill.
E------------------1-1----1----123---------------|
B--2-----2-------------2--------------2----------|
G-----3---3---3-------------3------------1-------|
D-----3-----2------------------------------------|
A------------------------------------------------|
E------------------------------------------------|

Monkey Noises.
E---The Monkey----------------------------------|
B-----------------------------------------------|
G------------------------------3----------------|
D-----------------------------------------------|
A-----------------------------------------------|
E-----------------------------------------------|

Riff
E--------------------------1-------------------------|
B------------3---------------------------------------|
G----------------2--------3--------------------------|
D----1----3--------------4----1--3-------------------|
A-------2------------------------2-------------------|
E-------------------------------------------1--------|

Verse1.
E-----------------------------------------------------|
B-----------------------------------------------------|
G-----------------------------------------------------|
D-----------------------------------------------------|
A-----5-------3-------8--------3----------------------|
E--5----5--3---3--8---8---3----3----------------------|

Solo
E--1---3-----1----1---3--------------------------|
B--------------2---------------------------------|
G----2---4---3------2----4-----------------------|
D------------------------------------------------|
A--------------------------------3----3----------|
E-----------------------------------3------------|
|
E----------------------------------------|
B----------------------------------------|
G----------------------------------------|
D--2---2----2----------2-----------------|
A--2---2----2----------2-----------------|
E--0---0----0----------0-----------------|

Verse 2 (1)
Riff
Outro
E--1-------------1-------------5----123--------|
B----2-------2-----2----------5----------------|
G------3-----3-------3-------------------------|
D--------4-----------------4-------------------|
A-----------5--------------4-------------------|
E---------------------------2------------------|
Tap to rate this tab
 
# A B C D E F G H I J K L M N O P Q R S T U V W X Y Z