Song name
# A B C D E F G H I J K L M N O P Q R S T U V W X Y Z

Goliath And The Giants - Jaywalking tab

---------------------------------------------------------------------------
	            Jaywalking - Goliath And The Giants
---------------------------------------------------------------------------


Hey, this is a song by Goliath And The Giants from their self titled debut album.
My first tab however so sorry if it's messy.
I'm sure you can figure out the rhythm for yourself.
Any comments appreciated

Intro/Vers:
e|--10----5----7----3----10----5----7----3---------------------------------|
B|--12----7----8----5----12----7----8----5---------------------------------|
G|--12----7----9----5----12----7----9----5---------------------------------|
D|--12----7----9----5----12----7----9----5---------------------------------| x1
A|--10----5----7----3----10----5----7----3---------------------------------|
E|-------------------------------------------------------------------------|
   She likes funny shaped rocks...

e|--10-10-10-10-10-10-10-10--5-5-5-5-5-5--7-7-7-7-7-7-7-7--3-3-3-3-3-3-3-3-|
B|--12-12-12-12-12-12-12-12--7-7-7-7-7-7--8-8-8-8-8-8-8-8--5-5-5-5-5-5-5-5-|
G|--12-12-12-12-12-12-12-12--7-7-7-7-7-7--9-9-9-9-9-9-9-9--5-5-5-5-5-5-5-5-|
D|--12-12-12-12-12-12-12-12--7-7-7-7-7-7--9-9-9-9-9-9-9-9--5-5-5-5-5-5-5-5-| x2
A|--10-10-10-10-10-10-10-10--5-5-5-5-5-5--7-7-7-7-7-7-7-7--3-3-3-3-3-3-3-3-|
E|-------------------------------------------------------------------------|
   ...and go, just walk out that door...


Guitar part 1:
e|----------------------------------10-h-12-10-----------------------------|
B|-----10----10-h-12-10-10----10---------------10----10----10-h-12-10-10---|
G|--12----12---------------12----12---------------12----12-----------------|
D|-------------------------------------------------------------------------|
A|-------------------------------------------------------------------------|
E|-------------------------------------------------------------------------|

e|------------------------------------------------------10-h-12-10---------|
B|-----10-12-b-13-12-10----10----10-h-12-10-10----10---------------10------|
G|--12------------------12----12---------------12----12---------------12---|
D|-------------------------------------------------------------------------|
A|-------------------------------------------------------------------------|
E|-------------------------------------------------------------------------|

e|-------------------------------------------------------------------------|
B|--10----10-h-12-10-10----10----------------------------------------------|
G|-----12---------------12----12-11-12-12----------------------------------|
D|-------------------------------------------------------------------------| x1
A|-------------------------------------------------------------------------|
E|-------------------------------------------------------------------------|



Vers 2:
e|--10----5----7----3--3-3-3-x-3-x-3--10-x-10-x-x-10-x-10--5-5-x-5-x-5-----|
B|--12----7----8----5--5-5-5-x-5-x-5--12-x-12-x-x-12-x-12--7-7-x-7-x-7-----|
G|--12----7----9----5--5-5-5-x-5-x-5--12-x-12-x-x-12-x-12--7-7-x-7-x-7-----|
D|--12----7----9----5--5-5-5-x-5-x-5--12-x-12-x-x-12-x-12--7-7-x-7-x-7-----|
A|--10----5----7----3--3-3-3-x-3-x-3--10-x-12-x-x-10-x-10--5-5-x-5-x-5-----|
E|-------------------------------------------------------------------------|
   I once had a seethru soul...

e|--x-7-x-7-x-7-x-7--3-3-3-3-3-3-3-3---------------------------------------|
B|--x-8-x-8-x-8-x-8--5-5-5-5-5-5-5-5---------------------------------------|
G|--x-9-x-9-x-9-x-9--5-5-5-5-5-5-5-5---------------------------------------|
D|--x-9-x-9-x-9-x-9--5-5-5-5-5-5-5-5---------------------------------------| x1
A|--x-7-x-7-x-7-x-7--3-3-3-3-3-3-3-3---------------------------------------|
E|-------------------------------------------------------------------------|



Chorus 2:
e|--10-10-10-10-10-10-10-10--5-5-5-5-5-5--7-7-7-7-7-7-7-7--3-3-3-3-3-3-3-3-|
B|--12-12-12-12-12-12-12-12--7-7-7-7-7-7--8-8-8-8-8-8-8-8--5-5-5-5-5-5-5-5-|
G|--12-12-12-12-12-12-12-12--7-7-7-7-7-7--9-9-9-9-9-9-9-9--5-5-5-5-5-5-5-5-|
D|--12-12-12-12-12-12-12-12--7-7-7-7-7-7--9-9-9-9-9-9-9-9--5-5-5-5-5-5-5-5-| x4
A|--10-10-10-10-10-10-10-10--5-5-5-5-5-5--7-7-7-7-7-7-7-7--3-3-3-3-3-3-3-3-|
E|-------------------------------------------------------------------------|
   ...and go, just walk out that door...


Guitar part 2:
e|----------------------------------10-h-12-10-----------------------------|
B|-----10----10-h-12-10-10----10---------------10----10----10-h-12-10-10---|
G|--12----12---------------12----12---------------12----12-----------------|
D|-------------------------------------------------------------------------|
A|-------------------------------------------------------------------------|
E|-------------------------------------------------------------------------|

e|-------------------------------------------------------------------------|
B|-----10------------------------------------------------------------------|
G|--12----12-11-12-12------------------------------------------------------|
D|-------------------------------------------------------------------------| x2
A|-------------------------------------------------------------------------|
E|-------------------------------------------------------------------------|



(WhaWha) Solo:
e|-----------------------------------19-------17----15----15----15----15---|
B|--10-8-10-8-7-5-3-0-----------3-17----17-17----17----17----17----17------|
G|--------------------2-h-4-2-4--------------------------------------------|
D|-------------------------------------------------------------------------|
A|-------------------------------------------------------------------------|
E|-------------------------------------------------------------------------|

e|-------7-10-17-15------7-10-17-15----------10----------12-------15-------|
B|--17-8------------13-8------------13-12-13----13-12-13----13-12----------|
G|-------------------------------------------------------------------------|
D|-------------------------------------------------------------------------|
A|-------------------------------------------------------------------------|
E|-------------------------------------------------------------------------|

e|----7-10-17-15------7-10-17-15-17-19-20-15-------------------------------|
B|--8------------13-8------------------------------------------------------|
G|-------------------------------------------------------------------------|
D|-------------------------------------------------------------------------|
A|-------------------------------------------------------------------------|
E|-------------------------------------------------------------------------|


Chorus 3:
e|--10-10-10-10-10-10-10-10--5-5-5-5-5-5--7-7-7-7-7-7-7-7--3-3-3-3-3-3-3-3-|
B|--12-12-12-12-12-12-12-12--7-7-7-7-7-7--8-8-8-8-8-8-8-8--5-5-5-5-5-5-5-5-|
G|--12-12-12-12-12-12-12-12--7-7-7-7-7-7--9-9-9-9-9-9-9-9--5-5-5-5-5-5-5-5-|
D|--12-12-12-12-12-12-12-12--7-7-7-7-7-7--9-9-9-9-9-9-9-9--5-5-5-5-5-5-5-5-| x4
A|--10-10-10-10-10-10-10-10--5-5-5-5-5-5--7-7-7-7-7-7-7-7--3-3-3-3-3-3-3-3-|
E|-------------------------------------------------------------------------|
   ...and go, just walk out that door...


Outro:
e|--10----5----7----3----10----5----7----3---------------------------------|
B|--12----7----8----5----12----7----8----5---------------------------------|
G|--12----7----9----5----12----7----9----5---------------------------------|
D|--12----7----9----5----12----7----9----5---------------------------------| x1
A|--10----5----7----3----10----5----7----3---------------------------------|
E|-------------------------------------------------------------------------|
   She likes funny shaped rocks...

That's it!
Hope you enjoy!
/Kevin


www.goliathandthegiants.com
www.myspace.com/goliathandthegiants
Tap to rate this tab
 
# A B C D E F G H I J K L M N O P Q R S T U V W X Y Z