Song name
# A B C D E F G H I J K L M N O P Q R S T U V W X Y Z

Goliath And The Giants - December tab

---------------------------------------------------------------------------
	            December - Goliath And The Giants
---------------------------------------------------------------------------


Hey, this is a song by Goliath And The Giants from their self titled debut album.
My first tab however so sorry if it's messy.
I'm sure you can figure out the rhythm for yourself.
Any comments appreciated

Intro:
e|-------------------------------------------------------------------|
B|--5-5-5--s--7-7-7--7-7-7--s--12-12---------------------------------|
G|--x-x-x--s--x-x-x--x-x-x--s---x--x---------------------------------|
D|--2-2-2--s--4-4-4--6-6-6--s---9--9---------------------------------| x6
A|--0-0-0--s--0-0-0--0-0-0--s---0--0---------------------------------|
E|-------------------------------------------------------------------|



Verse 1:
e|-------------------------------------------------------------------|
B|---------12-12-12--9-9--4-4--5-5-5--s--7-7-7--7-7-7--s--12-12------|
G|---9--9--11-11-11--9-9--4-4--x-x-x--s--x-x-x--x-x-x--s---x--x------|
D|--11-11----------------------2-2-2--s--4-4-4--6-6-6--s---9--9------| x6
A|-----------------------------0-0-0--s--0-0-0--0-0-0--s---0--0------|
E|-------------------------------------------------------------------|
   I'm standing here with you...


Chorus 1:
e|--------7-7-7-7-7-7-7-7-7-7-7--4-4-4-4-4--2-2-2-2-2----------------|
B|--------7-7-7-7-7-7-7-7-7-7-7--4-4-4-4-4--2-2-2-2-2----------------|
G|--7--h--9-9-9-9-9-8-9-9-9-8-9--4-4-4-4-4--2-2-2-2-2----------------|
D|--7--h--9-9-9-9-9-9-9-9-9-9-9--6-6-6-6-6--4-4-4-4-4----------------| x2
A|--7--h--7-7-7-7-7-7-7-7-7-7-7--6-6-6-6-6--4-4-4-4-4----------------|
E|-------------------------------4-4-4-4-4--2-2-2-2-2----------------|
   The sun won't let you freeze...



Verse 2:
e|-------------------------------------------------------------------|
B|---------12-12-12--9-9--4-4--5-5-5--s--7-7-7--7-7-7--s--12-12------|
G|---9--9--11-11-11--9-9--4-4--x-x-x--s--x-x-x--x-x-x--s---x--x------|
D|--11-11----------------------2-2-2--s--4-4-4--6-6-6--s---9--9------| x5
A|-----------------------------0-0-0--s--0-0-0--0-0-0--s---0--0------|
E|-------------------------------------------------------------------|
   It's bright were up again...


e|-------------------------------------------------------------------|
B|---------12-12-12--9-9--4-4--5-5-5--s--7-7-7--7-7-7--s---5--4------|
G|---9--9--11-11-11--9-9--4-4--x-x-x--s--x-x-x--x-x-x--s---x--x------|
D|--11-11----------------------2-2-2--s--4-4-4--6-6-6--s---2--1------| x1
A|-----------------------------0-0-0--s--0-0-0--0-0-0--s---0--0------|
E|-------------------------------------------------------------------|



Chorus 2:
e|--------7-7-7-7-7-7-7-7-7-7-7--4-4-4-4-4-4--2-2-2-2-2-2------------|
B|--------7-7-7-7-7-7-7-7-7-7-7--4-4-4-4-4-4--2-2-2-2-2-2------------|
G|--7--h--9-9-9-9-9-8-9-9-9-8-9--4-4-4-4-4-4--2-2-2-2-2-2------------|
D|--7--h--9-9-9-9-9-9-9-9-9-9-9--6-6-6-6-6-6--4-4-4-4-4-4------------| x2
A|--7--h--7-7-7-7-7-7-7-7-7-7-7--6-6-6-6-6-6--4-4-4-4-4-4------------|
E|-------------------------------4-4-4-4-4-4--2-2-2-2-2-2------------|
   The sun won't let you freeze...


Bridge: 
e|-------------------------------------------------------------------|
B|-------------------------------------------------------------------|
G|-------------------------------------------------------------------|
D|-------------------------------------------------------------------| x4
A|------8-------11-9-8---8-------8-------11-9-8-8-8-8-8-8------------|
E|--8-9---9-8-9--------9---9-8-9---9-8-9------9-9-9-9-9-9------------|


e|-------------------------------------------------------------------|
B|-------------------------------------------------------------------|
G|---------------------------8--9-11-11-11--s--13--------------------|
D|--6-7-6-7--9-7--9-11--9-11-9-11--x--x--x------x--------------------| x1
A|--7-9-7-9-11-9-11-12-11-12-------9--9--9--s--11--------------------|
E|-------------------------------------------------------------------|



Break:
e|--0-0-0-0-0-0-0-0-0-0-0-0--4-4-4-4-4-4--2-2-2-2-2-2----------------|
B|--0-0-0-0-0-0-0-0-0-0-0-0--4-4-4-4-4-4--2-2-2-2-2-2----------------|
G|--1-1-1-1-1-1-1-1-1-1-1-1--4-4-4-4-4-4--2-2-2-2-2-2----------------|
D|--2-2-2-2-2-2-2-2-2-2-2-2--6-6-6-6-6-6--4-4-4-4-4-4----------------| x6
A|--2-2-2-2-2-2-2-2-2-2-2-2--6-6-6-6-6-6--4-4-4-4-4-4----------------|
E|--0-0-0-0-0-0-0-0-0-0-0-0--4-4-4-4-4-4--2-2-2-2-2-2----------------|



Chorus 3:
e|--------7-7-7-7-7-7-7-7-7-7-7--4-4-4-4-4-4--2-2-2-2-2-2------------|
B|--------7-7-7-7-7-7-7-7-7-7-7--4-4-4-4-4-4--2-2-2-2-2-2------------|
G|--7--h--9-9-9-9-9-8-9-9-9-8-9--4-4-4-4-4-4--2-2-2-2-2-2------------|
D|--7--h--9-9-9-9-9-9-9-9-9-9-9--6-6-6-6-6-6--4-4-4-4-4-4------------| x4
A|--7--h--7-7-7-7-7-7-7-7-7-7-7--6-6-6-6-6-6--4-4-4-4-4-4------------|
E|-------------------------------4-4-4-4-4-4--2-2-2-2-2-2------------|
   The sun won't let you freeze...

e|--0----------------------------------------------------------------|
B|--0----------------------------------------------------------------|
G|--1----------------------------------------------------------------|
D|--2----------------------------------------------------------------| x1
A|--2----------------------------------------------------------------|
E|--0----------------------------------------------------------------|


That's it!
Hope you enjoy!
/Kevin


www.goliathandthegiants
www.myspace.com/goliathandthegiants
Tap to rate this tab
 
# A B C D E F G H I J K L M N O P Q R S T U V W X Y Z