Guitaretab - guitar tabs
Song name
# A B C D E F G H I J K L M N O P Q R S T U V W X Y Z

Goma - Si Me Quedo Sin Nada chords

Highlighted       Show chord diagrams
                                                Si Me Quedo Sin Nada

Capo 3er traste


Usaremos un acorde parecido a Gmmaj7, en los acordes cada vez que lo veamos lo 
marcaremos de la siguiente manera: 

   Gmmaj7
e----5------|
B----6------|
G----7------|
D----7------|
A----5------|
E-----------|


Y otro parecido al E7sus4 pero de la siguiente manera:

   E7sus4
e----0------|
B----0------|
G----0------|
D----0------|
A----2------|
E-----------|

En los coros el acorde C lo pueden sustituir utilizando el Intro.


Recuerden que lleva capo en el 3er traste.





Intro: C - E7sus4 - Am - F


         C  Hacia arriba    E7sus4        Am  Hacia arriba     F Hacia arriba
e--------0--0-------------0--0-------------0---0------------------1---|
B--------1--1-------------0--0-------------1---1------------------1---|
G--------0--0-------------0--0-------------2---2------------------2---|
D--------2--2-------------0--0-------------2---2------------------3---|
A----3---3--3---------2---2--2---------0---0---0--------0--2--3---3---|
E-----------------------------------------------------------------1---|
               F                      C                                C
[ Tab from: http://www.guitaretab.com/g/goma/355343.html ]
e----1--1--1--1--1--1--1--1-----0--0--0--0--0---------------------0--0--0--0---|
B----1--1--1--1--1--1--1--1-----1--1--1--1--1---------------------1--1--1--1---|
G----2--2--2--2--2--2--2--2-----0--0--0--0--0---------------------0--0--0--0---|
D----3--3--3--3--3--3--3--3-----2--2--2--2--2---0h2-----0h2--0h2--2--2--2--2---|
A----3--3--3--3--3--3--3--3-----3--3--3--3--3---------------------3--3--3--3---|
E----1--1--1--1--1--1--1--1-----0--0--0--0--0---------------------0--0--0--0---|




Verso:
C      Gm          Gmmaj7
Si me vuelvo a quedar sin nada
F                 C
Sé que te tengo a ti
C      Gm          Gmmaj7
Si me vuelvo a quedar sin ganas
F                 C
Sé que te tengo a ti


Coro:
C           F
Me haces sentir
C                 F
Más fuerte que el mar
C           F
Me haces creer
         Gm            Am
Que nada puede salirme mal
         F         C
Ya no me sé equivocar


Verso 2:
C     Gm      Gmmaj7
Turu turu tu tu tu
F               C
Ahora te tengo aquí
C     Gm       Gmmaj7
Turu turu tu tu tu tu tu
F            C
Ahora estás aquí


Coro 2:
C           F
Me haces sentir
C                 F
Más fuerte que el mar
C           F
Me haces creer
         Gm            Am
Que nada puede salirme mal
         F         C
Ya no me sé equivocar
         Gm          Am
Que nada puede salir mal
         F         C (Hasta terminar la canción)
Ya no me sé equivocar
Related for Si Me Quedo Sin Nada chords
×
Best way to learn
"Si Me Quedo Sin Nada"