Song name
# A B C D E F G H I J K L M N O P Q R S T U V W X Y Z

Gomez - Las Vegas Dealer tab

---------------------------------------------------------------------------
			     Las Vegas Dealer - Gomez
---------------------------------------------------------------------------
Tabbed by:deHufter
Email:kurtkill@hotmail.com

Tuning:standard

Intro + Verse:
e|--------------------------------------------------------------------------|
B|--------------------------------------------------------------------------|
G|-4---------7--------------------------------------------------------------|
D|-4--2-3-4--7--repeat------------------------------------------------------|
A|-2--2-3-4--5--------------------------------------------------------------|
E|----0-1-2-----------------------------------------------------------------|

Chorus:
e|--1--0--2--0----0--0--2--0-----------------2--0~--------------------------|
B|--1--0--3--0----2--0--3--0-----------------3--0~--------------------------|
G|--2--1--2--1----2--1--2--1-----------------2--1~--------------------------|
D|--3--2--0--2----2--2--0--2--twice-then:----0--2~--------------------------|
A|--3--2-----2----0--2-----2--------------------2~--------------------------|
E|--1--0-----0-------0-----0--------------------0~--------------------------|

During organ interlude play:
e|--3--2--------------------------------------------------------------------|
B|--5--4--------------------------------------------------------------------|
G|--5--4--------------------------------------------------------------------|
D|--5--4--------------------------------------------------------------------|
A|--3--2--------------------------------------------------------------------|
E|--------------------------------------------------------------------------|

That's basically it.
Tap to rate this tab
# A B C D E F G H I J K L M N O P Q R S T U V W X Y Z