Song name
# A B C D E F G H I J K L M N O P Q R S T U V W X Y Z

Gomez - Rosalita tab

Help us improve GuitareTab! Take a short survey!
rosaltia by gomez

Tabbed By starshower (starshowerblade@hotmail.com) comments and corrections welcome.

please note: Not exactly how it is recorded but it sounds pretty good, especially acoustic :-)


	F#m7   E7     A      D      E      E9     C      B      F#m7/E
e	-x---  -x---  -5---  -x---  -0---  -x---  -8---  -7---  -0---
a	-9---  -7---  -7---  -5---  -2---  -7---  -10--  -9---  -9---
d	-11--  -9---  -7---  -7---  -2---  -6---  -10--  -9---  -11--
g	-9---  -7---  -6---  -7---  -1---  -7---  -9---  -8---  -9---
b	-10--  -9---  -5---  -7---  -0---  -7---  -8---  -7---  -10--
e	-12--  -7---  -5---  -5---  -0---  -7---  -8---  -7---  -12--

intro:

E--2--2--0-----0    E-------12-------------------|
A---------------    A---------10------9----------|
D--2--2--1------    D-----9-----9----7--7--------|
G---------------  x2    G---11----------9----9---|  x2
B---------------     B--9-----------7------------|
E-----------0---      E--------------------------|


F#m7        E7     Fm7        E7
Rosaltia's walking round her knees
F#m7          E7           F#m7  E7
Rest my head she's calling to me
     A        D
In my dreams
     A
She's there for me
E7  D
But open my eyes to see you there
A
I'm falling
E
Sweetness
E9                           D             A            D         A
since you left me its been your flag i'm flying but i'm sick of crying
E
Why did you have to decieve me?
E9                      D             A
Was your plan just to kiss fuck and leave me?
D         A                   E
So considerately just please talk to me
E9                         D
I won't portray myself so pitifully
A                  D
My little conceit you see
E                    C        B
Is that I could not need you more than now

Rosalita's walking out on me
close the door she's stalling I see
She's so sweet
But not for me.
But as we sit aound and laught about
she's trying to call me
Darling
though you hurt me its not from a lack of trying, you got a fear of flying high
you have lost your patience
I see myself sinking in you're estimations forget the salutations
just please study these tears
your bitter words just confirm my fears
gonna let it fuck up all the years
Yet I could not need you more than now.

Solo part (just make it up around this.)

E------------------------------------------------------------------------|
A-----------------------------------------------------------------9-11---|
D-------------------------------------------------------9-11--11---------|
G-----------7/9---------11--9--9--9/7--7--7/9--9--99-9-------------------|
B-----7-----7/9--12--9--12--9--9--9/7--7--7/9--9--12-9-------------------|
E--12-9--7--7/9--12--9-----------------7-------------9-------------------|

E-------------------------------------------|
A-----5/12------12------5--5--5/12--12--12--|
D-----4/11--11--11--11--4--4--4/11--11--11--|
G-------------------------------------------|
B--3--3/10--10--10--10--3--3--3/10--10--10--|
E-------------------------------------------|


E
Beautiful bitch
E9                             D
I could consider this a simple glitch
A             D                  A
you're just a hopeless stitch in time
E
but then for your crimes
E9                            D               A
please find yourself a little guilty in these lines
         D                 A
got your concieence on my mind
         E       C           B
Because I could not need you more than now.
     E        c            B
Yeah I could not need you more than now
E       C           B
could not need you more than now.
Related for Rosalita tab